  0
SECTION
  2
HEADER
  9
$ACADVER
  1
AC1015
  9
$ACADMAINTVER
 70
     6
  9
$DWGCODEPAGE
  3
ANSI_1254
  9
$INSBASE
 10
0.0
 20
0.0
 30
0.0
  9
$EXTMIN
 10
0.0
 20
0.0
 30
0.0
  9
$EXTMAX
 10
279.4
 20
215.9
 30
0.0
  9
$LIMMIN
 10
0.0
 20
0.0
  9
$LIMMAX
 10
279.4
 20
215.9
  9
$ORTHOMODE
 70
     0
  9
$REGENMODE
 70
     1
  9
$FILLMODE
 70
     1
  9
$QTEXTMODE
 70
     0
  9
$MIRRTEXT
 70
     1
  9
$LTSCALE
 40
1.0
  9
$ATTMODE
 70
     1
  9
$TEXTSIZE
 40
3.5
  9
$TRACEWID
 40
1.0
  9
$TEXTSTYLE
  7
Standard
  9
$CLAYER
  8
0
  9
$CELTYPE
  6
ByLayer
  9
$CECOLOR
 62
   256
  9
$CELTSCALE
 40
1.0
  9
$DISPSILH
 70
     0
  9
$DIMSCALE
 40
1.0
  9
$DIMASZ
 40
3.5
  9
$DIMEXO
 40
1.0
  9
$DIMDLI
 40
3.75
  9
$DIMRND
 40
0.0
  9
$DIMDLE
 40
0.0
  9
$DIMEXE
 40
1.0
  9
$DIMTP
 40
0.0
  9
$DIMTM
 40
0.0
  9
$DIMTXT
 40
3.5
  9
$DIMCEN
 40
2.5
  9
$DIMTSZ
 40
0.0
  9
$DIMTOL
 70
     0
  9
$DIMLIM
 70
     0
  9
$DIMTIH
 70
     1
  9
$DIMTOH
 70
     1
  9
$DIMSE1
 70
     0
  9
$DIMSE2
 70
     0
  9
$DIMTAD
 70
     1
  9
$DIMZIN
 70
     0
  9
$DIMBLK
  1

  9
$DIMASO
 70
     1
  9
$DIMSHO
 70
     1
  9
$DIMPOST
  1

  9
$DIMAPOST
  1

  9
$DIMALT
 70
     0
  9
$DIMALTD
 70
     3
  9
$DIMALTF
 40
0.0393700787
  9
$DIMLFAC
 40
1.0
  9
$DIMTOFL
 70
     1
  9
$DIMTVP
 40
0.0
  9
$DIMTIX
 70
     0
  9
$DIMSOXD
 70
     0
  9
$DIMSAH
 70
     0
  9
$DIMBLK1
  1

  9
$DIMBLK2
  1

  9
$DIMSTYLE
  2
ISO-25
  9
$DIMCLRD
 70
     0
  9
$DIMCLRE
 70
     0
  9
$DIMCLRT
 70
     0
  9
$DIMTFAC
 40
1.0
  9
$DIMGAP
 40
1.524
  9
$DIMJUST
 70
     0
  9
$DIMSD1
 70
     0
  9
$DIMSD2
 70
     0
  9
$DIMTOLJ
 70
     0
  9
$DIMTZIN
 70
     0
  9
$DIMALTZ
 70
     0
  9
$DIMALTTZ
 70
     0
  9
$DIMUPT
 70
     0
  9
$DIMDEC
 70
     2
  9
$DIMTDEC
 70
     2
  9
$DIMALTU
 70
     2
  9
$DIMALTTD
 70
     3
  9
$DIMTXSTY
  7
Standard
  9
$DIMAUNIT
 70
     0
  9
$DIMADEC
 70
     2
  9
$DIMALTRND
 40
0.0
  9
$DIMAZIN
 70
     0
  9
$DIMDSEP
 70
    44
  9
$DIMATFIT
 70
     3
  9
$DIMFRAC
 70
     0
  9
$DIMLDRBLK
  1

  9
$DIMLUNIT
 70
     2
  9
$DIMLWD
 70
    -2
  9
$DIMLWE
 70
    -2
  9
$DIMTMOVE
 70
     0
  9
$LUNITS
 70
     2
  9
$LUPREC
 70
     2
  9
$SKETCHINC
 40
1.0
  9
$FILLETRAD
 40
10.0
  9
$AUNITS
 70
     0
  9
$AUPREC
 70
     2
  9
$MENU
  1
.
  9
$ELEVATION
 40
0.0
  9
$PELEVATION
 40
0.0
  9
$THICKNESS
 40
0.0
  9
$LIMCHECK
 70
     0
  9
$CHAMFERA
 40
0.0
  9
$CHAMFERB
 40
0.0
  9
$CHAMFERC
 40
0.0
  9
$CHAMFERD
 40
0.0
  9
$SKPOLY
 70
     0
  9
$TDCREATE
 40
2458985.646438264
  9
$TDUCREATE
 40
2458985.521438264
  9
$TDUPDATE
 40
2458985.64643853
  9
$TDUUPDATE
 40
2458985.52143853
  9
$TDINDWG
 40
0.0000000116
  9
$TDUSRTIMER
 40
0.0000000116
  9
$USRTIMER
 70
     1
  9
$ANGBASE
 50
0.0
  9
$ANGDIR
 70
     0
  9
$PDMODE
 70
     0
  9
$PDSIZE
 40
-1.0
  9
$PLINEWID
 40
0.0
  9
$SPLFRAME
 70
     0
  9
$SPLINETYPE
 70
     6
  9
$SPLINESEGS
 70
     8
  9
$HANDSEED
  5
C2
  9
$SURFTAB1
 70
     6
  9
$SURFTAB2
 70
     6
  9
$SURFTYPE
 70
     6
  9
$SURFU
 70
     6
  9
$SURFV
 70
     6
  9
$UCSBASE
  2

  9
$UCSNAME
  2

  9
$UCSORG
 10
0.0
 20
0.0
 30
0.0
  9
$UCSXDIR
 10
1.0
 20
0.0
 30
0.0
  9
$UCSYDIR
 10
0.0
 20
1.0
 30
0.0
  9
$UCSORTHOREF
  2

  9
$UCSORTHOVIEW
 70
     0
  9
$UCSORGTOP
 10
0.0
 20
0.0
 30
0.0
  9
$UCSORGBOTTOM
 10
0.0
 20
0.0
 30
0.0
  9
$UCSORGLEFT
 10
0.0
 20
0.0
 30
0.0
  9
$UCSORGRIGHT
 10
0.0
 20
0.0
 30
0.0
  9
$UCSORGFRONT
 10
0.0
 20
0.0
 30
0.0
  9
$UCSORGBACK
 10
0.0
 20
0.0
 30
0.0
  9
$PUCSBASE
  2

  9
$PUCSNAME
  2

  9
$PUCSORG
 10
0.0
 20
0.0
 30
0.0
  9
$PUCSXDIR
 10
1.0
 20
0.0
 30
0.0
  9
$PUCSYDIR
 10
0.0
 20
1.0
 30
0.0
  9
$PUCSORTHOREF
  2

  9
$PUCSORTHOVIEW
 70
     0
  9
$PUCSORGTOP
 10
0.0
 20
0.0
 30
0.0
  9
$PUCSORGBOTTOM
 10
0.0
 20
0.0
 30
0.0
  9
$PUCSORGLEFT
 10
0.0
 20
0.0
 30
0.0
  9
$PUCSORGRIGHT
 10
0.0
 20
0.0
 30
0.0
  9
$PUCSORGFRONT
 10
0.0
 20
0.0
 30
0.0
  9
$PUCSORGBACK
 10
0.0
 20
0.0
 30
0.0
  9
$USERI1
 70
     0
  9
$USERI2
 70
     0
  9
$USERI3
 70
     0
  9
$USERI4
 70
     0
  9
$USERI5
 70
     0
  9
$USERR1
 40
0.0
  9
$USERR2
 40
0.0
  9
$USERR3
 40
0.0
  9
$USERR4
 40
0.0
  9
$USERR5
 40
0.0
  9
$WORLDVIEW
 70
     1
  9
$SHADEDGE
 70
     3
  9
$SHADEDIF
 70
    70
  9
$TILEMODE
 70
     1
  9
$MAXACTVP
 70
    64
  9
$PINSBASE
 10
0.0
 20
0.0
 30
0.0
  9
$PLIMCHECK
 70
     0
  9
$PEXTMIN
 10
1.0000000000E+20
 20
1.0000000000E+20
 30
1.0000000000E+20
  9
$PEXTMAX
 10
-1.0000000000E+20
 20
-1.0000000000E+20
 30
-1.0000000000E+20
  9
$PLIMMIN
 10
0.0
 20
0.0
  9
$PLIMMAX
 10
420.0
 20
297.0
  9
$UNITMODE
 70
     0
  9
$VISRETAIN
 70
     1
  9
$PLINEGEN
 70
     0
  9
$PSLTSCALE
 70
     1
  9
$TREEDEPTH
 70
  3020
  9
$CMLSTYLE
  2
Standard
  9
$CMLJUST
 70
     0
  9
$CMLSCALE
 40
20.0
  9
$PROXYGRAPHICS
 70
     1
  9
$MEASUREMENT
 70
     1
  9
$CELWEIGHT
370
    -1
  9
$ENDCAPS
280
     0
  9
$JOINSTYLE
280
     0
  9
$LWDISPLAY
290
     1
  9
$INSUNITS
 70
     4
  9
$HYPERLINKBASE
  1

  9
$STYLESHEET
  1

  9
$XEDIT
290
     1
  9
$CEPSNTYPE
380
     0
  9
$PSTYLEMODE
290
     1
  9
$FINGERPRINTGUID
  2
{0f736b56-7701-4c62-8f0c-3ae96007c6be}
  9
$VERSIONGUID
  2
{FAEB1C32-E019-11D5-929B-00C0DF256EC4}
  9
$EXTNAMES
290
     1
  9
$PSVPSCALE
 40
0.0
  9
$OLESTARTUP
290
     0
  0
ENDSEC
  0
SECTION
  2
CLASSES
  0
CLASS
  1
ACDBDICTIONARYWDFLT
  2
AcDbDictionaryWithDefault
  3
ObjectDBX Classes
 90
        0
280
     0
281
     0
  0
CLASS
  1
VISUALSTYLE
  2
AcDbVisualStyle
  3
ObjectDBX Classes
 90
     4095
280
     0
281
     0
  0
CLASS
  1
MATERIAL
  2
AcDbMaterial
  3
ObjectDBX Classes
 90
     1153
280
     0
281
     0
  0
CLASS
  1
SCALE
  2
AcDbScale
  3
ObjectDBX Classes
 90
     1153
280
     0
281
     0
  0
CLASS
  1
TABLESTYLE
  2
AcDbTableStyle
  3
ObjectDBX Classes
 90
     4095
280
     0
281
     0
  0
CLASS
  1
MLEADERSTYLE
  2
AcDbMLeaderStyle
  3
ACDB_MLEADERSTYLE_CLASS
 90
     4095
280
     0
281
     0
  0
CLASS
  1
SUN
  2
AcDbSun
  3
SCENEOE
 90
     1153
280
     0
281
     0
  0
CLASS
  1
ACDBPLACEHOLDER
  2
AcDbPlaceHolder
  3
ObjectDBX Classes
 90
        0
280
     0
281
     0
  0
CLASS
  1
LAYOUT
  2
AcDbLayout
  3
ObjectDBX Classes
 90
        0
280
     0
281
     0
  0
ENDSEC
  0
SECTION
  2
TABLES
  0
TABLE
  2
VPORT
  5
8
330
0
100
AcDbSymbolTable
 70
     1
  0
VPORT
  5
29
330
8
100
AcDbSymbolTableRecord
100
AcDbViewportTableRecord
  2
*Active
 70
     0
 10
0.0
 20
0.0
 11
1.0
 21
1.0
 12
139.7
 22
107.95
 13
0.0
 23
0.0
 14
10.0
 24
10.0
 15
10.0
 25
10.0
 16
0.0
 26
0.0
 36
1.0
 17
0.0
 27
0.0
 37
0.0
 40
215.9
 41
1.2941176471
 42
50.0
 43
0.0
 44
0.0
 50
0.0
 51
0.0
 71
     0
 72
  2000
 73
     1
 74
     3
 75
     0
 76
     0
 77
     0
 78
     0
281
     0
 65
     1
110
0.0
120
0.0
130
0.0
111
1.0
121
0.0
131
0.0
112
0.0
122
1.0
132
0.0
 79
     0
146
0.0
  0
ENDTAB
  0
TABLE
  2
LTYPE
  5
5
330
0
100
AcDbSymbolTable
 70
     6
  0
LTYPE
  5
14
330
5
100
AcDbSymbolTableRecord
100
AcDbLinetypeTableRecord
  2
ByBlock
 70
     0
  3

 72
    65
 73
     0
 40
0.0
  0
LTYPE
  5
15
330
5
100
AcDbSymbolTableRecord
100
AcDbLinetypeTableRecord
  2
ByLayer
 70
     0
  3

 72
    65
 73
     0
 40
0.0
  0
LTYPE
  5
16
330
5
100
AcDbSymbolTableRecord
100
AcDbLinetypeTableRecord
  2
Continuous
 70
     0
  3
Solid line
 72
    65
 73
     0
 40
0.0
  0
LTYPE
  5
6E
330
5
100
AcDbSymbolTableRecord
100
AcDbLinetypeTableRecord
  2
HIDDEN
 70
     0
  3
Hidden __ __ __ __ __ __ __ __ __ __ __ __ __ __
 72
    65
 73
     2
 40
1.905
 49
1.27
 74
     0
 49
-0.635
 74
     0
  0
LTYPE
  5
6F
330
5
100
AcDbSymbolTableRecord
100
AcDbLinetypeTableRecord
  2
PHANTOM
 70
     0
  3
Phantom ______  __  __  ______  __  __  ______
 72
    65
 73
     6
 40
12.7
 49
6.35
 74
     0
 49
-1.27
 74
     0
 49
1.27
 74
     0
 49
-1.27
 74
     0
 49
1.27
 74
     0
 49
-1.27
 74
     0
  0
LTYPE
  5
70
330
5
100
AcDbSymbolTableRecord
100
AcDbLinetypeTableRecord
  2
CENTER
 70
     0
  3
Center ____ _ ____ _ ____ _ ____ _ ____ _ ____
 72
    65
 73
     4
 40
10.16
 49
6.35
 74
     0
 49
-1.27
 74
     0
 49
1.27
 74
     0
 49
-1.27
 74
     0
  0
LTYPE
  5
71
330
5
100
AcDbSymbolTableRecord
100
AcDbLinetypeTableRecord
  2
CENTERX2
 70
     0
  3
Center (2x) ________  __  ________  __  _____
 72
    65
 73
     4
 40
20.32
 49
12.7
 74
     0
 49
-2.54
 74
     0
 49
2.54
 74
     0
 49
-2.54
 74
     0
  0
LTYPE
  5
72
330
5
100
AcDbSymbolTableRecord
100
AcDbLinetypeTableRecord
  2
DOT2
 70
     0
  3
Dot (.5x) ........................................
 72
    65
 73
     2
 40
0.635
 49
0.0
 74
     0
 49
-0.635
 74
     0
  0
ENDTAB
  0
TABLE
  2
LAYER
  5
2
330
0
100
AcDbSymbolTable
 70
    17
  0
LAYER
  5
10
330
2
100
AcDbSymbolTableRecord
100
AcDbLayerTableRecord
  2
0
 70
     0
 62
     7
  6
Continuous
370
    -3
390
F
  0
LAYER
  5
73
330
2
100
AcDbSymbolTableRecord
100
AcDbLayerTableRecord
  2
FORMAT
 70
     0
 62
     7
  6
Continuous
370
    -3
390
F
  0
LAYER
  5
74
330
2
100
AcDbSymbolTableRecord
100
AcDbLayerTableRecord
  2
YARDIMCI_GEOMETRI
 70
     0
 62
    -6
  6
Continuous
290
     0
370
    -3
390
F
  0
LAYER
  5
75
330
2
100
AcDbSymbolTableRecord
100
AcDbLayerTableRecord
  2
SAYFA_CERCEVESI
 70
     0
 62
     7
  6
Continuous
370
    25
390
F
  0
LAYER
  5
76
330
2
100
AcDbSymbolTableRecord
100
AcDbLayerTableRecord
  2
ANTET
 70
     0
 62
     7
  6
Continuous
370
    -3
390
F
  0
LAYER
  5
77
330
2
100
AcDbSymbolTableRecord
100
AcDbLayerTableRecord
  2
OLCU
 70
     0
 62
   150
  6
Continuous
370
    -3
390
F
  0
LAYER
  5
78
330
2
100
AcDbSymbolTableRecord
100
AcDbLayerTableRecord
  2
METIN
 70
     0
 62
    96
  6
Continuous
370
    -3
390
F
  0
LAYER
  5
79
330
2
100
AcDbSymbolTableRecord
100
AcDbLayerTableRecord
  2
BALON
 70
     0
 62
     5
  6
Continuous
370
    -3
390
F
  0
LAYER
  5
7A
330
2
100
AcDbSymbolTableRecord
100
AcDbLayerTableRecord
  2
VURGU
 70
     0
 62
     7
  6
Continuous
370
    -3
390
F
  0
LAYER
  5
7B
330
2
100
AcDbSymbolTableRecord
100
AcDbLayerTableRecord
  2
SILIK
 70
     0
 62
     7
  6
Continuous
370
    -3
390
F
  0
LAYER
  5
7C
330
2
100
AcDbSymbolTableRecord
100
AcDbLayerTableRecord
  2
MODEL
 70
     0
 62
     7
  6
Continuous
370
    -3
390
F
  0
LAYER
  5
7D
330
2
100
AcDbSymbolTableRecord
100
AcDbLayerTableRecord
  2
DETAYLANDıRMA
 70
     0
 62
   190
  6
Continuous
370
    -3
390
F
  0
LAYER
  5
7E
330
2
100
AcDbSymbolTableRecord
100
AcDbLayerTableRecord
  2
TOLERANS
 70
     0
 62
   230
  6
Continuous
370
    -3
390
F
  0
LAYER
  5
7F
330
2
100
AcDbSymbolTableRecord
100
AcDbLayerTableRecord
  2
MERKEZ_CIZGILERI
 70
     0
 62
    30
  6
Continuous
370
    -3
390
F
  0
LAYER
  5
80
330
2
100
AcDbSymbolTableRecord
100
AcDbLayerTableRecord
  2
KESIT-DETAY_CIZGILERI
 70
     0
 62
     7
  6
Continuous
370
    -3
390
F
  0
LAYER
  5
81
330
2
100
AcDbSymbolTableRecord
100
AcDbLayerTableRecord
  2
\U+041E\U+0421\U+0415\U+0412\U+042B\U+0415
 70
     0
 62
     7
  6
Continuous
370
    -3
390
F
  0
LAYER
  5
82
330
2
100
AcDbSymbolTableRecord
100
AcDbLayerTableRecord
  2
\U+0412\U+041E\U+0414\U+042F\U+041D\U+042B\U+0415_\U+0417\U+041D\U+0410\U+041A\U+0418
 70
     0
 62
    11
  6
Continuous
370
    -3
390
F
  0
ENDTAB
  0
TABLE
  2
STYLE
  5
3
330
0
100
AcDbSymbolTable
 70
     1
  0
STYLE
  5
11
330
3
100
AcDbSymbolTableRecord
100
AcDbTextStyleTableRecord
  2
Standard
 70
     0
 40
0.0
 41
1.0
 50
0.0
 71
     0
 42
3.5
  3
txt
  4

  0
ENDTAB
  0
TABLE
  2
VIEW
  5
6
330
0
100
AcDbSymbolTable
 70
     0
  0
ENDTAB
  0
TABLE
  2
UCS
  5
7
330
0
100
AcDbSymbolTable
 70
     0
  0
ENDTAB
  0
TABLE
  2
APPID
  5
9
330
0
100
AcDbSymbolTable
 70
     1
  0
APPID
  5
12
330
9
100
AcDbSymbolTableRecord
100
AcDbRegAppTableRecord
  2
ACAD
 70
     0
  0
ENDTAB
  0
TABLE
  2
DIMSTYLE
  5
A
330
0
100
AcDbSymbolTable
 70
     1
100
AcDbDimStyleTable
  0
DIMSTYLE
105
27
330
A
100
AcDbSymbolTableRecord
100
AcDbDimStyleTableRecord
  2
ISO-25
 70
     0
 41
2.5
 42
0.625
 43
3.75
 44
1.25
 73
     0
 74
     0
 77
     1
 78
     8
140
2.5
141
2.5
143
0.0393700787
147
0.625
171
     3
172
     1
178
     0
271
     2
272
     2
274
     3
278
    44
283
     0
284
     8
340
11
  0
ENDTAB
  0
TABLE
  2
BLOCK_RECORD
  5
1
330
0
100
AcDbSymbolTable
 70
     1
  0
BLOCK_RECORD
  5
1F
330
1
100
AcDbSymbolTableRecord
100
AcDbBlockTableRecord
  2
*Model_Space
340
22
  0
BLOCK_RECORD
  5
1B
330
1
100
AcDbSymbolTableRecord
100
AcDbBlockTableRecord
  2
*Paper_Space
340
1E
  0
BLOCK_RECORD
  5
23
330
1
100
AcDbSymbolTableRecord
100
AcDbBlockTableRecord
  2
*Paper_Space0
340
26
  0
ENDTAB
  0
ENDSEC
  0
SECTION
  2
BLOCKS
  0
BLOCK
  5
20
330
1F
100
AcDbEntity
  8
0
100
AcDbBlockBegin
  2
*Model_Space
 70
     0
 10
0.0
 20
0.0
 30
0.0
  3
*Model_Space
  1

  0
ENDBLK
  5
21
330
1F
100
AcDbEntity
  8
0
100
AcDbBlockEnd
  0
BLOCK
  5
1C
330
1B
100
AcDbEntity
 67
     1
  8
0
100
AcDbBlockBegin
  2
*Paper_Space
 70
     0
 10
0.0
 20
0.0
 30
0.0
  3
*Paper_Space
  1

  0
ENDBLK
  5
1D
330
1B
100
AcDbEntity
 67
     1
  8
0
100
AcDbBlockEnd
  0
BLOCK
  5
24
330
23
100
AcDbEntity
  8
0
100
AcDbBlockBegin
  2
*Paper_Space0
 70
     0
 10
0.0
 20
0.0
 30
0.0
  3
*Paper_Space0
  1

  0
ENDBLK
  5
25
330
23
100
AcDbEntity
  8
0
100
AcDbBlockEnd
  0
ENDSEC
  0
SECTION
  2
ENTITIES
  0
CIRCLE
  5
83
330
1F
100
AcDbEntity
  8
0
  6
Continuous
 62
     7
370
    25
100
AcDbCircle
 10
144.1527913498
 20
106.035144706
 30
0.0
 40
355.0
  0
CIRCLE
  5
84
330
1F
100
AcDbEntity
  8
0
  6
Continuous
 62
     7
370
    25
100
AcDbCircle
 10
144.1527913498
 20
106.035144706
 30
0.0
 40
290.5
  0
CIRCLE
  5
85
330
1F
100
AcDbEntity
  8
0
  6
Continuous
 62
     7
370
    25
100
AcDbCircle
 10
144.1527913498
 20
106.035144706
 30
0.0
 40
370.0
  0
CIRCLE
  5
86
330
1F
100
AcDbEntity
  8
0
  6
Continuous
 62
     7
370
    25
100
AcDbCircle
 10
144.1527913498
 20
106.035144706
 30
0.0
 40
400.0000000000001
  0
LINE
  5
87
330
1F
100
AcDbEntity
  8
0
  6
Continuous
 62
     7
370
    25
100
AcDbLine
 10
544.1527913498
 20
874.4774187683
 30
0.0
 11
544.1527913498
 21
949.4774187683
 31
0.0
  0
LINE
  5
88
330
1F
100
AcDbEntity
  8
0
  6
Continuous
 62
     7
370
    25
100
AcDbLine
 10
-255.8472086502
 20
949.4774187683
 30
0.0
 11
-255.8472086502
 21
874.4774187683
 31
0.0
  0
LINE
  5
89
330
1F
100
AcDbEntity
  8
0
  6
Continuous
 62
     7
370
    25
100
AcDbLine
 10
514.1527913498
 20
949.4774187683
 30
0.0
 11
499.1527913498
 21
988.4774187683
 31
0.0
  0
LINE
  5
8A
330
1F
100
AcDbEntity
  8
0
  6
Continuous
 62
     7
370
    25
100
AcDbLine
 10
-210.8472086502
 20
988.4774187683
 30
0.0
 11
-225.8472086502
 21
949.4774187683
 31
0.0
  0
LINE
  5
8B
330
1F
100
AcDbEntity
  8
0
  6
Continuous
 62
     7
370
    25
100
AcDbLine
 10
499.1527913498
 20
988.4774187683
 30
0.0
 11
499.1527913498
 21
1028.4774187683
 31
0.0
  0
LINE
  5
8C
330
1F
100
AcDbEntity
  8
0
  6
Continuous
 62
     7
370
    25
100
AcDbLine
 10
-210.8472086502
 20
1028.4774187683
 30
0.0
 11
-210.8472086502
 21
988.4774187683
 31
0.0
  0
LINE
  5
8D
330
1F
100
AcDbEntity
  8
0
  6
Continuous
 62
     7
370
    25
100
AcDbLine
 10
544.1527913498
 20
874.4774187683
 30
0.0
 11
-255.8472086502
 21
874.4774187683
 31
0.0
  0
LINE
  5
8E
330
1F
100
AcDbEntity
  8
0
  6
Continuous
 62
     7
370
    25
100
AcDbLine
 10
544.1527913498
 20
949.4774187683
 30
0.0
 11
-255.8472086502
 21
949.4774187683
 31
0.0
  0
LINE
  5
8F
330
1F
100
AcDbEntity
  8
0
  6
Continuous
 62
     7
370
    25
100
AcDbLine
 10
499.1527913498
 20
988.4774187683
 30
0.0
 11
-210.8472086502
 21
988.4774187683
 31
0.0
  0
LINE
  5
90
330
1F
100
AcDbEntity
  8
0
  6
Continuous
 62
     7
370
    25
100
AcDbLine
 10
499.1527913498
 20
1028.4774187683
 30
0.0
 11
-210.8472086502
 21
1028.4774187683
 31
0.0
  0
LINE
  5
91
330
1F
100
AcDbEntity
  8
0
  6
Continuous
 62
     7
370
    25
100
AcDbLine
 10
-610.8605746216
 20
506.035144706
 30
0.0
 11
-685.8605746216
 21
506.035144706
 31
0.0
  0
LINE
  5
92
330
1F
100
AcDbEntity
  8
0
  6
Continuous
 62
     7
370
    25
100
AcDbLine
 10
-685.8605746216
 20
-293.964855294
 30
0.0
 11
-610.8605746216
 21
-293.964855294
 31
0.0
  0
LINE
  5
93
330
1F
100
AcDbEntity
  8
0
  6
Continuous
 62
     7
370
    25
100
AcDbLine
 10
-685.8605746216
 20
476.035144706
 30
0.0
 11
-724.8605746216
 21
461.035144706
 31
0.0
  0
LINE
  5
94
330
1F
100
AcDbEntity
  8
0
  6
Continuous
 62
     7
370
    25
100
AcDbLine
 10
-724.8605746216
 20
-248.964855294
 30
0.0
 11
-685.8605746216
 21
-263.964855294
 31
0.0
  0
LINE
  5
95
330
1F
100
AcDbEntity
  8
0
  6
Continuous
 62
     7
370
    25
100
AcDbLine
 10
-724.8605746216
 20
461.035144706
 30
0.0
 11
-764.8605746216
 21
461.035144706
 31
0.0
  0
LINE
  5
96
330
1F
100
AcDbEntity
  8
0
  6
Continuous
 62
     7
370
    25
100
AcDbLine
 10
-764.8605746216
 20
-248.964855294
 30
0.0
 11
-724.8605746216
 21
-248.964855294
 31
0.0
  0
LINE
  5
97
330
1F
100
AcDbEntity
  8
0
  6
Continuous
 62
     7
370
    25
100
AcDbLine
 10
-610.8605746216
 20
506.035144706
 30
0.0
 11
-610.8605746216
 21
-293.964855294
 31
0.0
  0
LINE
  5
98
330
1F
100
AcDbEntity
  8
0
  6
Continuous
 62
     7
370
    25
100
AcDbLine
 10
-685.8605746216
 20
506.035144706
 30
0.0
 11
-685.8605746216
 21
-293.964855294
 31
0.0
  0
LINE
  5
99
330
1F
100
AcDbEntity
  8
0
  6
Continuous
 62
     7
370
    25
100
AcDbLine
 10
-724.8605746216
 20
461.035144706
 30
0.0
 11
-724.8605746216
 21
-248.964855294
 31
0.0
  0
LINE
  5
9A
330
1F
100
AcDbEntity
  8
0
  6
Continuous
 62
     7
370
    25
100
AcDbLine
 10
-764.8605746216
 20
461.035144706
 30
0.0
 11
-764.8605746216
 21
-248.964855294
 31
0.0
  0
LINE
  5
9B
330
1F
100
AcDbEntity
  8
0
  6
Continuous
 62
     7
370
    25
100
AcDbLine
 10
-255.8472086502
 20
-791.8517131304
 30
0.0
 11
-255.8472086502
 21
-866.8517131304
 31
0.0
  0
LINE
  5
9C
330
1F
100
AcDbEntity
  8
0
  6
Continuous
 62
     7
370
    25
100
AcDbLine
 10
544.1527913498
 20
-866.8517131304
 30
0.0
 11
544.1527913498
 21
-791.8517131304
 31
0.0
  0
LINE
  5
9D
330
1F
100
AcDbEntity
  8
0
  6
Continuous
 62
     7
370
    25
100
AcDbLine
 10
-225.8472086502
 20
-866.8517131304
 30
0.0
 11
-210.8472086502
 21
-905.8517131304
 31
0.0
  0
LINE
  5
9E
330
1F
100
AcDbEntity
  8
0
  6
Continuous
 62
     7
370
    25
100
AcDbLine
 10
499.1527913498
 20
-905.8517131304
 30
0.0
 11
514.1527913498
 21
-866.8517131304
 31
0.0
  0
LINE
  5
9F
330
1F
100
AcDbEntity
  8
0
  6
Continuous
 62
     7
370
    25
100
AcDbLine
 10
-210.8472086502
 20
-905.8517131304
 30
0.0
 11
-210.8472086502
 21
-945.8517131304
 31
0.0
  0
LINE
  5
A0
330
1F
100
AcDbEntity
  8
0
  6
Continuous
 62
     7
370
    25
100
AcDbLine
 10
499.1527913498
 20
-945.8517131304
 30
0.0
 11
499.1527913498
 21
-905.8517131304
 31
0.0
  0
LINE
  5
A1
330
1F
100
AcDbEntity
  8
0
  6
Continuous
 62
     7
370
    25
100
AcDbLine
 10
-255.8472086502
 20
-791.8517131304
 30
0.0
 11
544.1527913498
 21
-791.8517131304
 31
0.0
  0
LINE
  5
A2
330
1F
100
AcDbEntity
  8
0
  6
Continuous
 62
     7
370
    25
100
AcDbLine
 10
-255.8472086502
 20
-866.8517131304
 30
0.0
 11
544.1527913498
 21
-866.8517131304
 31
0.0
  0
LINE
  5
A3
330
1F
100
AcDbEntity
  8
0
  6
Continuous
 62
     7
370
    25
100
AcDbLine
 10
-210.8472086502
 20
-905.8517131304
 30
0.0
 11
499.1527913499
 21
-905.8517131304
 31
0.0
  0
LINE
  5
A4
330
1F
100
AcDbEntity
  8
0
  6
Continuous
 62
     7
370
    25
100
AcDbLine
 10
-210.8472086502
 20
-945.8517131304
 30
0.0
 11
499.1527913499
 21
-945.8517131304
 31
0.0
  0
LINE
  5
A5
330
1F
100
AcDbEntity
  8
0
  6
Continuous
 62
     7
370
    25
100
AcDbLine
 10
974.9936623042
 20
-293.964855294
 30
0.0
 11
1049.9936623042
 21
-293.964855294
 31
0.0
  0
LINE
  5
A6
330
1F
100
AcDbEntity
  8
0
  6
Continuous
 62
     7
370
    25
100
AcDbLine
 10
1049.9936623042
 20
506.035144706
 30
0.0
 11
974.9936623042
 21
506.035144706
 31
0.0
  0
LINE
  5
A7
330
1F
100
AcDbEntity
  8
0
  6
Continuous
 62
     7
370
    25
100
AcDbLine
 10
1049.9936623042
 20
-263.964855294
 30
0.0
 11
1088.9936623042
 21
-248.964855294
 31
0.0
  0
LINE
  5
A8
330
1F
100
AcDbEntity
  8
0
  6
Continuous
 62
     7
370
    25
100
AcDbLine
 10
1088.9936623042
 20
461.035144706
 30
0.0
 11
1049.9936623042
 21
476.035144706
 31
0.0
  0
LINE
  5
A9
330
1F
100
AcDbEntity
  8
0
  6
Continuous
 62
     7
370
    25
100
AcDbLine
 10
1088.9936623042
 20
-248.964855294
 30
0.0
 11
1128.9936623042
 21
-248.964855294
 31
0.0
  0
LINE
  5
AA
330
1F
100
AcDbEntity
  8
0
  6
Continuous
 62
     7
370
    25
100
AcDbLine
 10
1128.9936623042
 20
461.035144706
 30
0.0
 11
1088.9936623042
 21
461.035144706
 31
0.0
  0
LINE
  5
AB
330
1F
100
AcDbEntity
  8
0
  6
Continuous
 62
     7
370
    25
100
AcDbLine
 10
974.9936623042
 20
106.035144706
 30
0.0
 11
974.9936623042
 21
506.035144706
 31
0.0
  0
LINE
  5
AC
330
1F
100
AcDbEntity
  8
0
  6
Continuous
 62
     7
370
    25
100
AcDbLine
 10
974.9936623042
 20
-293.964855294
 30
0.0
 11
974.9936623042
 21
106.035144706
 31
0.0
  0
LINE
  5
AD
330
1F
100
AcDbEntity
  8
0
  6
Continuous
 62
     7
370
    25
100
AcDbLine
 10
1049.9936623042
 20
106.035144706
 30
0.0
 11
1049.9936623042
 21
506.035144706
 31
0.0
  0
LINE
  5
AE
330
1F
100
AcDbEntity
  8
0
  6
Continuous
 62
     7
370
    25
100
AcDbLine
 10
1049.9936623042
 20
-293.964855294
 30
0.0
 11
1049.9936623042
 21
106.035144706
 31
0.0
  0
LINE
  5
AF
330
1F
100
AcDbEntity
  8
0
  6
Continuous
 62
     7
370
    25
100
AcDbLine
 10
1088.9936623042
 20
106.035144706
 30
0.0
 11
1088.9936623042
 21
461.035144706
 31
0.0
  0
LINE
  5
B0
330
1F
100
AcDbEntity
  8
0
  6
Continuous
 62
     7
370
    25
100
AcDbLine
 10
1088.9936623042
 20
-248.964855294
 30
0.0
 11
1088.9936623042
 21
106.035144706
 31
0.0
  0
LINE
  5
B1
330
1F
100
AcDbEntity
  8
0
  6
Continuous
 62
     7
370
    25
100
AcDbLine
 10
1128.9936623042
 20
106.035144706
 30
0.0
 11
1128.9936623042
 21
461.035144706
 31
0.0
  0
LINE
  5
B2
330
1F
100
AcDbEntity
  8
0
  6
Continuous
 62
     7
370
    25
100
AcDbLine
 10
1128.9936623042
 20
-248.964855294
 30
0.0
 11
1128.9936623042
 21
106.035144706
 31
0.0
  0
LINE
  5
B3
330
1F
100
AcDbEntity
  8
0
  6
Continuous
 62
     7
370
    25
100
AcDbLine
 10
1262.0354328298
 20
-483.724027592
 30
0.0
 11
1209.0024242408
 21
-453.1087233987
 31
0.0
  0
LINE
  5
B4
330
1F
100
AcDbEntity
  8
0
  6
Continuous
 62
     7
370
    25
100
AcDbLine
 10
809.0349311864
 20
-1145.9478133032
 30
0.0
 11
862.0679397754
 21
-1176.5631174966
 31
0.0
  0
LINE
  5
B5
330
1F
100
AcDbEntity
  8
0
  6
Continuous
 62
     7
370
    25
100
AcDbLine
 10
1158.9270882902
 20
-476.1609640253
 30
0.0
 11
1130.6428170428
 21
-459.8328017888
 31
0.0
  0
LINE
  5
B6
330
1F
100
AcDbEntity
  8
0
  6
Continuous
 62
     7
370
    25
100
AcDbLine
 10
775.671666957
 20
-1074.7274940791
 30
0.0
 11
803.9559382044
 21
-1091.0556563155
 31
0.0
  0
LINE
  5
B7
330
1F
100
AcDbEntity
  8
0
  6
Continuous
 62
     7
370
    25
100
AcDbLine
 10
1136.7083762429
 20
-462.1203306813
 30
0.0
 11
1134.3225661334
 21
-461.9570757224
 31
0.0
  0
LINE
  5
B8
330
1F
100
AcDbEntity
  8
0
  6
Continuous
 62
     7
370
    25
100
AcDbLine
 10
779.3514160476
 20
-1076.8517680127
 30
0.0
 11
780.6858902643
 21
-1078.8361874807
 31
0.0
  0
LWPOLYLINE
  5
B9
330
1F
100
AcDbEntity
  8
0
  6
Continuous
 62
     7
370
    25
100
AcDbPolyline
 90
      108
 70
   128
 43
0.0
 10
1262.0354328298
 20
-483.724027592
 10
1264.9933851052
 20
-485.4828864394
 10
1270.7424523008
 20
-489.2084904803
 10
1276.3082207656
 20
-493.2335470031
 10
1281.685801935
 20
-497.5545206919
 10
1286.8704725344
 20
-502.167616319
 10
1291.8576787277
 20
-507.0687820781
 10
1296.6430401172
 20
-512.2537131429
 10
1301.2223535907
 20
-517.7178554488
 10
1305.5915970138
 20
-523.4564096919
 10
1309.746932762
 20
-529.4643355453
 10
1313.6847110918
 20
-535.7363560857
 10
1317.4014733463
 20
-542.266962428
 10
1320.8939549929
 20
-549.0504185647
 10
1324.1590884906
 20
-556.080766403
 10
1327.1940059848
 20
-563.3518309989
 10
1329.9960418254
 20
-570.85722598
 10
1332.5627349088
 20
-578.5903591555
 10
1334.8918308391
 20
-586.5444383059
 10
1336.9812839086
 20
-594.7124771487
 10
1338.8292588942
 20
-603.0873014751
 10
1340.4341326697
 20
-611.6615554509
 10
1341.7944956312
 20
-620.4277080775
 10
1342.9091529351
 20
-629.3780598065
 10
1343.7771255478
 20
-638.5047493025
 10
1344.3976511056
 20
-647.7997603478
 10
1344.7701845841
 20
-657.2549288834
 10
1344.8943987772
 20
-666.8619501798
 10
1344.7701845841
 20
-676.6123861307
 10
1344.3976511056
 20
-686.4976726654
 10
1343.7771255478
 20
-696.5091272698
 10
1342.9091529351
 20
-706.6379566133
 10
1341.7944956312
 20
-716.8752642717
 10
1340.4341326697
 20
-727.2120585415
 10
1338.8292588942
 20
-737.6392603375
 10
1336.9812839086
 20
-748.1477111668
 10
1334.8918308391
 20
-758.7281811736
 10
1332.5627349088
 20
-769.3713772456
 10
1329.9960418254
 20
-780.0679511766
 10
1327.1940059848
 20
-790.8085078769
 10
1324.1590884906
 20
-801.5836136259
 10
1320.8939549929
 20
-812.3838043574
 10
1317.4014733463
 20
-823.1995939726
 10
1313.6847110918
 20
-834.0214826715
 10
1309.746932762
 20
-844.8399652972
 10
1305.5915970138
 20
-855.6455396847
 10
1301.2223535907
 20
-866.4287150063
 10
1296.6430401172
 20
-877.1800201083
 10
1291.8576787277
 20
-887.8900118292
 10
1286.8704725344
 20
-898.5492832943
 10
1281.685801935
 20
-909.1484721779
 10
1276.3082207656
 20
-919.6782689265
 10
1270.7424523008
 20
-930.1294249353
 10
1264.9933851052
 20
-940.4927606722
 10
1259.0660687397
 20
-950.7591737396
 10
1252.9657093263
 20
-960.9196468699
 10
1246.697664975
 20
-970.9652558456
 10
1240.2674410785
 20
-980.8871773371
 10
1233.6806854759
 20
-990.6766966531
 10
1226.9431834924
 20
-1000.3252153946
 10
1220.0608528577
 20
-1009.8242590072
 10
1213.0397385085
 20
-1019.1654842248
 10
1205.8860072791
 20
-1028.340686397
 10
1198.6059424845
 20
-1037.3418066963
 10
1191.2059384022
 20
-1046.1609391959
 10
1183.6924946554
 20
-1054.7903378136
 10
1176.0722105045
 20
-1063.2224231159
 10
1168.3517790506
 20
-1071.4497889747
 10
1160.5379813569
 20
-1079.4652090726
 10
1152.637680493
 20
-1087.2616432499
 10
1144.6578155061
 20
-1094.8322436879
 10
1136.6053953271
 20
-1102.1703609242
 10
1128.4874926137
 20
-1109.2695496923
 10
1120.3112375391
 20
-1116.1235745832
 10
1112.0838115286
 20
-1122.7264155218
 10
1103.8124409526
 20
-1129.0722730549
 10
1095.504390779
 20
-1135.1555734445
 10
1087.1669581923
 20
-1140.9709735637
 10
1078.8074661847
 20
-1146.5133655898
 10
1070.4332571236
 20
-1151.7778814902
 10
1062.0516863026
 20
-1156.7598972986
 10
1053.6701154816
 20
-1161.4550371761
 10
1045.2959064204
 20
-1165.8591772546
 10
1036.9364144128
 20
-1169.968449259
 10
1028.5989818262
 20
-1173.779243905
 10
1020.2909316526
 20
-1177.2882140686
 10
1012.0195610765
 20
-1180.4922777269
 10
1003.7921350661
 20
-1183.3886206641
 10
995.6158799915
 20
-1185.9746989441
 10
987.4979772781
 20
-1188.2482411447
 10
979.445557099
 20
-1190.2072503522
 10
971.4656921122
 20
-1191.8500059162
 10
963.5653912482
 20
-1193.1750649601
 10
955.7515935546
 20
-1194.1812636486
 10
948.0311621007
 20
-1194.8677182105
 10
940.4108779497
 20
-1195.2338257141
 10
932.8974342029
 20
-1195.2792645973
 10
925.4974301206
 20
-1195.00399495
 10
918.2173653261
 20
-1194.4082585488
 10
911.0636340967
 20
-1193.4925786452
 10
904.0425197475
 20
-1192.2577595055
 10
897.1601891128
 20
-1190.7048857047
 10
890.4226871293
 20
-1188.8353211737
 10
883.8359315266
 20
-1186.6507080015
 10
877.4057076302
 20
-1184.1529649928
 10
871.1376632789
 20
-1181.3442859827
 10
865.0373038654
 20
-1178.2271379098
 10
862.0679397754
 20
-1176.5631174966
  0
LWPOLYLINE
  5
BA
330
1F
100
AcDbEntity
  8
0
  6
Continuous
 62
     7
370
    25
100
AcDbPolyline
 90
      144
 70
   128
 43
0.0
 10
1075.8942735229
 20
-443.5664078355
 10
1083.5723867381
 20
-441.4235997506
 10
1091.6248069171
 20
-439.464590543
 10
1099.604671904
 20
-437.821834979
 10
1107.504972768
 20
-436.4967759352
 10
1115.3187704616
 20
-435.4905772466
 10
1123.0392019155
 20
-434.8041226847
 10
1130.6594860664
 20
-434.4380151811
 10
1138.1729298133
 20
-434.3925762979
 10
1145.5729338956
 20
-434.6678459453
 10
1152.8529986901
 20
-435.2635823464
 10
1160.0067299195
 20
-436.17926225
 10
1167.0278442687
 20
-437.4140813898
 10
1173.9101749034
 20
-438.9669551906
 10
1180.6476768869
 20
-440.8365197216
 10
1187.2344324895
 20
-443.0211328938
 10
1193.664656386
 20
-445.5188759024
 10
1199.9327007373
 20
-448.3275549125
 10
1206.0330601508
 20
-451.4447029855
 10
1211.9603765162
 20
-454.867582246
 10
1217.7094437118
 20
-458.593186287
 10
1223.2752121766
 20
-462.6182428097
 10
1228.652793346
 20
-466.9392164985
 10
1233.8374639454
 20
-471.5523121257
 10
1238.8246701388
 20
-476.4534778847
 10
1243.6100315282
 20
-481.6384089496
 10
1248.1893450018
 20
-487.1025512554
 10
1252.5585884248
 20
-492.8411054985
 10
1256.713924173
 20
-498.849031352
 10
1260.6517025028
 20
-505.1210518923
 10
1264.3684647573
 20
-511.6516582347
 10
1267.8609464039
 20
-518.4351143713
 10
1271.1260799017
 20
-525.4654622097
 10
1274.1609973958
 20
-532.7365268055
 10
1276.9630332364
 20
-540.2419217867
 10
1279.5297263198
 20
-547.9750549622
 10
1281.8588222501
 20
-555.9291341125
 10
1283.9482753196
 20
-564.0971729553
 10
1285.7962503052
 20
-572.4719972817
 10
1287.4011240808
 20
-581.0462512576
 10
1288.7614870422
 20
-589.8124038842
 10
1289.8761443461
 20
-598.7627556132
 10
1290.7441169588
 20
-607.8894451091
 10
1291.3646425166
 20
-617.1844561545
 10
1291.7371759951
 20
-626.6396246901
 10
1291.8613901882
 20
-636.2466459864
 10
1291.7371759951
 20
-645.9970819374
 10
1291.3646425166
 20
-655.882368472
 10
1290.7441169588
 20
-665.8938230764
 10
1289.8761443461
 20
-676.0226524199
 10
1288.7614870422
 20
-686.2599600783
 10
1287.4011240808
 20
-696.5967543482
 10
1285.7962503052
 20
-707.0239561441
 10
1283.9482753196
 20
-717.5324069734
 10
1281.8588222501
 20
-728.1128769803
 10
1279.5297263198
 20
-738.7560730523
 10
1276.9630332364
 20
-749.4526469832
 10
1274.1609973958
 20
-760.1932036836
 10
1271.1260799017
 20
-770.9683094326
 10
1267.8609464039
 20
-781.7685001641
 10
1264.3684647573
 20
-792.5842897792
 10
1260.6517025028
 20
-803.4061784781
 10
1256.713924173
 20
-814.2246611039
 10
1252.5585884248
 20
-825.0302354914
 10
1248.1893450017
 20
-835.813410813
 10
1243.6100315282
 20
-846.5647159149
 10
1238.8246701388
 20
-857.2747076358
 10
1233.8374639454
 20
-867.933979101
 10
1228.652793346
 20
-878.5331679846
 10
1223.2752121766
 20
-889.0629647331
 10
1217.7094437118
 20
-899.514120742
 10
1211.9603765162
 20
-909.8774564788
 10
1206.0330601508
 20
-920.1438695462
 10
1199.9327007373
 20
-930.3043426766
 10
1193.664656386
 20
-940.3499516522
 10
1187.2344324895
 20
-950.2718731437
 10
1180.6476768869
 20
-960.0613924597
 10
1173.9101749034
 20
-969.7099112012
 10
1167.0278442687
 20
-979.2089548139
 10
1160.0067299195
 20
-988.5501800314
 10
1152.8529986901
 20
-997.7253822037
 10
1145.5729338956
 20
-1006.726502503
 10
1138.1729298132
 20
-1015.5456350025
 10
1130.6594860664
 20
-1024.1750336203
 10
1123.0392019155
 20
-1032.6071189226
 10
1115.3187704616
 20
-1040.8344847814
 10
1107.504972768
 20
-1048.8499048793
 10
1099.604671904
 20
-1056.6463390565
 10
1091.6248069171
 20
-1064.2169394946
 10
1083.5723867381
 20
-1071.5550567309
 10
1075.4544840247
 20
-1078.6542454989
 10
1067.2782289501
 20
-1085.5082703898
 10
1059.0508029396
 20
-1092.1111113285
 10
1050.7794323636
 20
-1098.4569688615
 10
1042.47138219
 20
-1104.5402692511
 10
1034.1339496033
 20
-1110.3556693704
 10
1025.7744575958
 20
-1115.8980613964
 10
1017.4002485346
 20
-1121.1625772969
 10
1009.0186777136
 20
-1126.1445931052
 10
1000.6371068926
 20
-1130.8397329827
 10
992.2628978314
 20
-1135.2438730612
 10
983.9034058238
 20
-1139.3531450657
 10
975.5659732372
 20
-1143.1639397116
 10
967.2579230636
 20
-1146.6729098753
 10
958.9865524875
 20
-1149.8769735335
 10
950.7591264771
 20
-1152.7733164707
 10
942.5828714025
 20
-1155.3593947508
 10
934.4649686891
 20
-1157.6329369513
 10
926.4125485101
 20
-1159.5919461589
 10
918.4326835232
 20
-1161.2347017229
 10
910.5323826592
 20
-1162.5597607667
 10
902.7185849656
 20
-1163.5659594553
 10
894.9981535117
 20
-1164.2524140172
 10
887.3778693608
 20
-1164.6185215208
 10
879.8644256139
 20
-1164.663960404
 10
872.4644215316
 20
-1164.3886907566
 10
865.1843567371
 20
-1163.7929543555
 10
858.0306255077
 20
-1162.8772744518
 10
851.0095111585
 20
-1161.6424553121
 10
844.1271805238
 20
-1160.0895815113
 10
837.3896785403
 20
-1158.2200169803
 10
830.8029229377
 20
-1156.0354038081
 10
824.3726990412
 20
-1153.5376607994
 10
818.1046546899
 20
-1150.7289817893
 10
812.0042952764
 20
-1147.6118337164
 10
806.076978911
 20
-1144.1889544559
 10
800.3279117154
 20
-1140.4633504149
 10
794.7621432506
 20
-1136.4382938922
 10
789.3845620812
 20
-1132.1173202033
 10
784.1998914817
 20
-1127.5042245762
 10
779.2126852884
 20
-1122.6030588172
 10
774.427323899
 20
-1117.4181277523
 10
769.8480104254
 20
-1111.9539854465
 10
765.4787670024
 20
-1106.2154312033
 10
761.3234312542
 20
-1100.2075053499
 10
757.3856529244
 20
-1093.9354848096
 10
753.6688906699
 20
-1087.4048784672
 10
750.1764090233
 20
-1080.6214223306
 10
746.9112755255
 20
-1073.5910744922
 10
743.8763580314
 20
-1066.3200098964
 10
741.0743221908
 20
-1058.8146149152
 10
738.5076291074
 20
-1051.0814817397
 10
736.1785331771
 20
-1043.1274025894
 10
734.206598983
 20
-1035.4509523816
  0
LWPOLYLINE
  5
BB
330
1F
100
AcDbEntity
  8
0
  6
Continuous
 62
     7
370
    25
100
AcDbPolyline
 90
      122
 70
   128
 43
0.0
 10
1136.7083762429
 20
-462.1203306813
 10
1139.8334322331
 20
-462.366836069
 10
1146.7488660296
 20
-463.1506366464
 10
1153.5336543996
 20
-464.253511783
 10
1160.1813615605
 20
-465.6744153349
 10
1166.6856817594
 20
-467.4119994889
 10
1173.0404452545
 20
-469.4646160414
 10
1179.2396241678
 20
-471.8303179611
 10
1185.2773382026
 20
-474.5068612365
 10
1191.1478602213
 20
-477.4917070041
 10
1196.8456216782
 20
-480.782023957
 10
1202.3652179015
 20
-484.3746910302
 10
1207.7014132198
 20
-488.2663003614
 10
1212.8491459286
 20
-492.4531605233
 10
1217.8035330916
 20
-496.9313000256
 10
1222.5598751725
 20
-501.6964710816
 10
1227.1136604928
 20
-506.744153638
 10
1231.4605695111
 20
-512.0695596621
 10
1235.596478921
 20
-517.6676376837
 10
1239.517465562
 20
-523.5330775866
 10
1243.2198101406
 20
-529.660315646
 10
1246.7000007587
 20
-536.0435398053
 10
1249.9547362449
 20
-542.6766951897
 10
1252.9809292852
 20
-549.5534898496
 10
1255.7757093523
 20
-556.6674007288
 10
1258.336425428
 20
-564.0116798517
 10
1260.660648518
 20
-571.5793607248
 10
1262.746173956
 20
-579.3632649445
 10
1264.5910234946
 20
-587.3560090059
 10
1266.1934471825
 20
-595.5500113074
 10
1267.5519250235
 20
-603.9374993412
 10
1268.6651684193
 20
-612.5105170671
 10
1269.532121391
 20
-621.2609324583
 10
1270.1519615813
 20
-630.1804452158
 10
1270.5241010341
 20
-639.2605946416
 10
1270.6481867526
 20
-648.4927676637
 10
1270.5241010341
 20
-657.868207007
 10
1270.1519615813
 20
-667.3780194993
 10
1269.532121391
 20
-677.0131845075
 10
1268.6651684193
 20
-686.7645624937
 10
1267.5519250235
 20
-696.6229036855
 10
1266.1934471825
 20
-706.5788568489
 10
1264.5910234946
 20
-716.6229781594
 10
1262.746173956
 20
-726.7457401595
 10
1260.660648518
 20
-736.9375407963
 10
1258.336425428
 20
-747.1887125294
 10
1255.7757093523
 20
-757.4895315017
 10
1252.9809292852
 20
-767.8302267623
 10
1249.9547362449
 20
-778.2009895353
 10
1246.7000007587
 20
-788.5919825242
 10
1243.2198101406
 20
-798.9933492427
 10
1239.517465562
 20
-809.3952233643
 10
1235.596478921
 20
-819.7877380814
 10
1231.4605695111
 20
-830.1610354643
 10
1227.1136604928
 20
-840.505275812
 10
1222.5598751725
 20
-850.8106469861
 10
1217.8035330916
 20
-861.0673737177
 10
1212.8491459286
 20
-871.2657268802
 10
1207.7014132198
 20
-881.396032718
 10
1202.3652179015
 20
-891.4486820222
 10
1196.8456216782
 20
-901.4141392462
 10
1191.1478602213
 20
-911.28295155
 10
1185.2773382026
 20
-921.0457577675
 10
1179.2396241678
 20
-930.6932972856
 10
1173.0404452545
 20
-940.2164188286
 10
1166.6856817594
 20
-949.606089139
 10
1160.1813615605
 20
-958.8534015456
 10
1153.5336543996
 20
-967.9495844126
 10
1146.7488660295
 20
-976.8860094594
 10
1139.8334322331
 20
-985.6541999457
 10
1132.7939127181
 20
-994.2458387116
 10
1125.6369848953
 20
-1002.6527760673
 10
1118.3694375441
 20
-1010.8670375235
 10
1110.9981643735
 20
-1018.8808313557
 10
1103.5301574826
 20
-1026.686555995
 10
1095.9725007282
 20
-1034.2768072388
 10
1088.3323630057
 20
-1041.6443852739
 10
1080.6169914483
 20
-1048.7823015063
 10
1072.8337045534
 20
-1055.6837851902
 10
1064.9898852401
 20
-1062.3422898502
 10
1057.0929738461
 20
-1068.7514994913
 10
1049.1504610702
 20
-1074.9053345899
 10
1041.1698808668
 20
-1080.7979578607
 10
1033.1588032998
 20
-1086.4237797935
 10
1025.1248273614
 20
-1091.7774639556
 10
1017.0755737645
 20
-1096.8539320531
 10
1009.0186777136
 20
-1101.6483687487
 10
1000.9617816627
 20
-1106.1562262286
 10
992.9125280658
 20
-1110.373228517
 10
984.8785521274
 20
-1114.2953755318
 10
976.8674745603
 20
-1117.9189468789
 10
968.886894357
 20
-1121.2405053815
 10
960.9443815811
 20
-1124.2569003402
 10
953.0474701871
 20
-1126.9652705215
 10
945.2036508738
 20
-1129.3630468723
 10
937.4203639789
 20
-1131.4479549565
 10
929.7049924215
 20
-1133.2180171125
 10
922.064854699
 20
-1134.6715543292
 10
914.5071979446
 20
-1135.8071878383
 10
907.0391910537
 20
-1136.6238404229
 10
899.6679178831
 20
-1137.1207374383
 10
892.4003705319
 20
-1137.2974075477
 10
885.2434427091
 20
-1137.1536831688
 10
878.2039231941
 20
-1136.6897006329
 10
871.2884893976
 20
-1135.9059000555
 10
864.5037010276
 20
-1134.8030249189
 10
857.8559938667
 20
-1133.382121367
 10
851.3516736678
 20
-1131.644537213
 10
844.9969101726
 20
-1129.5919206605
 10
838.7977312594
 20
-1127.2262187408
 10
832.7600172246
 20
-1124.5496754654
 10
826.8894952059
 20
-1121.5648296978
 10
821.191733749
 20
-1118.2745127449
 10
815.6721375257
 20
-1114.6818456717
 10
810.3359422074
 20
-1110.7902363405
 10
805.1882094986
 20
-1106.6033761786
 10
800.2338223356
 20
-1102.1252366763
 10
795.4774802547
 20
-1097.3600656203
 10
790.9236949344
 20
-1092.3123830639
 10
786.5767859161
 20
-1086.9869770398
 10
782.4408765061
 20
-1081.3888990182
 10
780.6858902643
 20
-1078.8361874807
  0
LWPOLYLINE
  5
BC
330
1F
100
AcDbEntity
  8
0
  6
Continuous
 62
     7
370
    25
100
AcDbPolyline
 90
      201
 70
   128
 43
0.0
 10
702.1343346786
 20
-912.1925877825
 10
702.2581993302
 20
-903.0159830557
 10
702.6296710455
 20
-893.7054234472
 10
703.2483832268
 20
-884.2700973554
 10
704.1137252798
 20
-874.7193163078
 10
705.2248432164
 20
-865.0625057723
 10
706.5806404974
 20
-855.309195855
 10
708.1797791145
 20
-845.4690118953
 10
710.020680911
 20
-835.5516649668
 10
712.101529139
 20
-825.5669422934
 10
714.4202702527
 20
-815.5246975911
 10
716.9746159343
 20
-805.4348413428
 10
719.7620453533
 20
-795.3073310187
 10
722.7798076532
 20
-785.1521612486
 10
726.0249246669
 20
-774.9793539591
 10
729.4941938559
 20
-764.7989484828
 10
733.1841914702
 20
-754.6209916508
 10
737.0912759278
 20
-744.4555278777
 10
741.2115914078
 20
-734.3125892489
 10
745.5410716566
 20
-724.2021856203
 10
750.0754439996
 20
-714.1342947397
 10
754.8102335589
 20
-704.1188523997
 10
759.7407676688
 20
-694.165742633
 10
764.8621804874
 20
-684.284787957
 10
770.1694177986
 20
-674.4857396812
 10
775.6572419999
 20
-664.7782682831
 10
781.3202372713
 20
-655.1719538651
 10
787.1528149203
 20
-645.6762766996
 10
793.1492188968
 20
-636.3006078736
 10
799.3035314742
 20
-627.0542000403
 10
805.6096790889
 20
-617.9461782879
 10
812.0614383345
 20
-608.9855311342
 10
818.6524421036
 20
-600.1811016561
 10
825.3761858713
 20
-591.5415787626
 10
832.2260341142
 20
-583.0754886197
 10
839.195226859
 20
-574.7911862363
 10
846.276886354
 20
-566.6968472186
 10
853.4640238562
 20
-558.8004597019
 10
860.7495465286
 20
-551.1098164675
 10
868.1262644399
 20
-543.6325072517
 10
875.5868976602
 20
-536.3759112559
 10
883.1240834451
 20
-529.3471898644
 10
890.7303835023
 20
-522.5532795764
 10
898.398291332
 20
-516.0008851613
 10
906.1202396349
 20
-509.6964730413
 10
913.8886077802
 20
-503.6462649099
 10
921.6957293266
 20
-497.8562315921
 10
929.5338995875
 20
-492.3320871518
 10
937.3953832354
 20
-487.0792832526
 10
945.2724219349
 20
-482.1030037779
 10
953.1572419999
 20
-477.4081597145
 10
961.0420620648
 20
-472.9993843069
 10
968.9191007643
 20
-468.881028484
 10
976.7805844122
 20
-465.0571565658
 10
984.6187546731
 20
-461.5315422523
 10
992.4258762195
 20
-458.3076648991
 10
1000.1942443648
 20
-455.388706084
 10
1007.9161926677
 20
-452.7775464668
 10
1015.5841004974
 20
-450.476762947
 10
1023.1904005546
 20
-448.48862612
 10
1030.7275863395
 20
-446.8150980369
 10
1038.1882195598
 20
-445.4578302678
 10
1045.5649374711
 20
-444.4181622721
 10
1052.8504601435
 20
-443.6971200768
 10
1060.0375976457
 20
-443.2954152632
 10
1067.1192571407
 20
-443.2134442657
 10
1074.0884498856
 20
-443.4512879796
 10
1080.9382981284
 20
-444.0087116819
 10
1087.6620418961
 20
-444.8851652629
 10
1094.2530456652
 20
-446.0797837684
 10
1100.7048049109
 20
-447.5913882545
 10
1107.0109525255
 20
-449.4184869498
 10
1113.1652651029
 20
-451.5592767287
 10
1119.1616690794
 20
-454.0116448899
 10
1124.9942467284
 20
-456.7731712423
 10
1130.6572419999
 20
-459.8411304928
 10
1136.1450662011
 20
-463.2124949359
 10
1141.4523035123
 20
-466.8839374419
 10
1146.5737163309
 20
-470.8518347405
 10
1151.5042504408
 20
-475.1122709959
 10
1156.2390400001
 20
-479.6610416721
 10
1160.7734123432
 20
-484.4936576814
 10
1165.1028925919
 20
-489.6053498154
 10
1169.223208072
 20
-494.991073451
 10
1173.1302925295
 20
-500.6455135293
 10
1176.8202901438
 20
-506.5630898006
 10
1180.2895593328
 20
-512.7379623315
 10
1183.5346763466
 20
-519.1640372683
 10
1186.5524386464
 20
-525.834972851
 10
1189.3398680654
 20
-532.7441856714
 10
1191.8942137471
 20
-539.8848571707
 10
1194.2129548607
 20
-547.2499403682
 10
1196.2938030888
 20
-554.8321668161
 10
1198.1347048852
 20
-562.6240537721
 10
1199.7338435023
 20
-570.6179115846
 10
1201.0896407833
 20
-578.8058512811
 10
1202.2007587199
 20
-587.1797923536
 10
1203.066100773
 20
-595.7314707333
 10
1203.6848129542
 20
-604.4524469461
 10
1204.0562846695
 20
-613.3341144413
 10
1204.1801493211
 20
-622.3677080854
 10
1204.0562846695
 20
-631.5443128122
 10
1203.6848129542
 20
-640.8548724207
 10
1203.066100773
 20
-650.2901985125
 10
1202.2007587199
 20
-659.8409795601
 10
1201.0896407833
 20
-669.4977900956
 10
1199.7338435023
 20
-679.2511000129
 10
1198.1347048852
 20
-689.0912839726
 10
1196.2938030887
 20
-699.0086309011
 10
1194.2129548607
 20
-708.9933535745
 10
1191.8942137471
 20
-719.0355982768
 10
1189.3398680654
 20
-729.1254545251
 10
1186.5524386464
 20
-739.2529648492
 10
1183.5346763466
 20
-749.4081346193
 10
1180.2895593328
 20
-759.5809419088
 10
1176.8202901438
 20
-769.7613473851
 10
1173.1302925295
 20
-779.9393042171
 10
1169.223208072
 20
-790.1047679902
 10
1165.1028925919
 20
-800.247706619
 10
1160.7734123432
 20
-810.3581102476
 10
1156.2390400001
 20
-820.4260011282
 10
1151.5042504408
 20
-830.4414434682
 10
1146.5737163309
 20
-840.3945532349
 10
1141.4523035123
 20
-850.2755079109
 10
1136.1450662011
 20
-860.0745561867
 10
1130.6572419999
 20
-869.7820275848
 10
1124.9942467284
 20
-879.3883420028
 10
1119.1616690794
 20
-888.8840191683
 10
1113.1652651029
 20
-898.2596879943
 10
1107.0109525255
 20
-907.5060958276
 10
1100.7048049109
 20
-916.61411758
 10
1094.2530456652
 20
-925.5747647337
 10
1087.6620418961
 20
-934.3791942118
 10
1080.9382981284
 20
-943.0187171053
 10
1074.0884498856
 20
-951.4848072482
 10
1067.1192571407
 20
-959.7691096316
 10
1060.0375976457
 20
-967.8634486493
 10
1052.8504601435
 20
-975.759836166
 10
1045.5649374711
 20
-983.4504794004
 10
1038.1882195598
 20
-990.9277886162
 10
1030.7275863395
 20
-998.184384612
 10
1023.1904005546
 20
-1005.2131060035
 10
1015.5841004974
 20
-1012.0070162915
 10
1007.9161926677
 20
-1018.5594107066
 10
1000.1942443648
 20
-1024.8638228266
 10
992.4258762195
 20
-1030.914030958
 10
984.6187546731
 20
-1036.7040642758
 10
976.7805844122
 20
-1042.2282087161
 10
968.9191007643
 20
-1047.4810126153
 10
961.0420620648
 20
-1052.45729209
 10
953.1572419999
 20
-1057.1521361534
 10
945.2724219349
 20
-1061.560911561
 10
937.3953832354
 20
-1065.6792673839
 10
929.5338995875
 20
-1069.5031393021
 10
921.6957293266
 20
-1073.0287536156
 10
913.8886077802
 20
-1076.2526309688
 10
906.1202396349
 20
-1079.1715897839
 10
898.398291332
 20
-1081.7827494011
 10
890.7303835023
 20
-1084.0835329209
 10
883.1240834451
 20
-1086.0716697479
 10
875.5868976602
 20
-1087.745197831
 10
868.1262644399
 20
-1089.1024656001
 10
860.7495465286
 20
-1090.1421335958
 10
853.4640238562
 20
-1090.8631757911
 10
846.276886354
 20
-1091.2648806047
 10
839.195226859
 20
-1091.3468516022
 10
832.2260341142
 20
-1091.1090078883
 10
825.3761858713
 20
-1090.551584186
 10
818.6524421036
 20
-1089.675130605
 10
812.0614383345
 20
-1088.4805120995
 10
805.6096790889
 20
-1086.9689076134
 10
799.3035314742
 20
-1085.1418089181
 10
793.1492188968
 20
-1083.0010191392
 10
787.1528149203
 20
-1080.548650978
 10
781.3202372713
 20
-1077.7871246256
 10
775.6572419999
 20
-1074.7191653751
 10
770.1694177986
 20
-1071.347800932
 10
764.8621804874
 20
-1067.676358426
 10
759.7407676688
 20
-1063.7084611274
 10
754.8102335589
 20
-1059.448024872
 10
750.0754439996
 20
-1054.8992541958
 10
745.5410716565
 20
-1050.0666381865
 10
741.2115914078
 20
-1044.9549460525
 10
737.0912759278
 20
-1039.5692224169
 10
733.1841914702
 20
-1033.9147823386
 10
729.4941938559
 20
-1027.9972060673
 10
726.0249246669
 20
-1021.8223335364
 10
722.7798076532
 20
-1015.3962585996
 10
719.7620453533
 20
-1008.7253230169
 10
716.9746159343
 20
-1001.8161101965
 10
714.4202702527
 20
-994.6754386972
 10
712.101529139
 20
-987.3103554997
 10
710.020680911
 20
-979.7281290518
 10
708.1797791145
 20
-971.9362420958
 10
706.5806404974
 20
-963.9423842833
 10
705.2248432164
 20
-955.7544445868
 10
704.1137252798
 20
-947.3805035143
 10
703.2483832268
 20
-938.8288251346
 10
702.6296710455
 20
-930.1078489218
 10
702.2581993302
 20
-921.2261814266
 10
702.1343346786
 20
-912.1925877825
  0
LWPOLYLINE
  5
BD
330
1F
100
AcDbEntity
  8
0
  6
Continuous
 62
     7
370
    25
100
AcDbPolyline
 90
      182
 70
   128
 43
0.0
 10
747.7427220652
 20
-885.8634261762
 10
747.8664763138
 20
-877.559363814
 10
748.2375899456
 20
-869.122423586
 10
748.8556157974
 20
-860.5627713482
 10
749.7198091962
 20
-851.8907208146
 10
750.8291288564
 20
-843.1167211308
 10
752.1822381341
 20
-834.251344283
 10
753.777506638
 20
-825.3052723599
 10
755.6130121939
 20
-816.2892846812
 10
757.6865431605
 20
-807.2142448099
 10
759.9956010945
 20
-798.0910874623
 10
762.5374037609
 20
-788.9308053323
 10
765.3088884855
 20
-779.7444358465
 10
768.3067158451
 20
-770.5430478646
 10
771.5272736911
 20
-761.3377283423
 10
774.9666815023
 20
-752.1395689729
 10
778.6207950601
 20
-742.9596528218
 10
782.4852114422
 20
-733.8090409731
 10
786.555274328
 20
-724.6987592013
 10
790.8260796086
 20
-715.6397846863
 10
795.2924812964
 20
-706.643032787
 10
799.9490977251
 20
-697.7193438885
 10
804.7903180347
 20
-688.879470341
 10
809.8103089317
 20
-680.1340635035
 10
815.0030217182
 20
-671.4936609103
 10
820.3621995796
 20
-662.9686735733
 10
825.8813851241
 20
-654.5693734383
 10
831.553928163
 20
-646.3058810079
 10
837.3729937236
 20
-638.1881531468
 10
843.3315702853
 20
-630.2259710847
 10
849.4224782274
 20
-622.428928631
 10
855.6383784801
 20
-614.8064206144
 10
861.971781368
 20
-607.3676315635
 10
868.4150556337
 20
-600.1215246396
 10
874.9604376336
 20
-593.0768308372
 10
881.6000406922
 20
-586.2420384637
 10
888.325864605
 20
-579.6253829115
 10
895.129805278
 20
-573.2348367352
 10
902.0036644927
 20
-567.0781000453
 10
908.939159784
 20
-561.1625912298
 10
915.9279344204
 20
-555.4954380162
 10
922.9615674727
 20
-550.0834688827
 10
930.0315839609
 20
-544.9332048305
 10
937.1294650659
 20
-540.0508515268
 10
944.2466583938
 20
-535.4422918269
 10
951.3745882808
 20
-531.1130786864
 10
958.5046661268
 20
-527.0684284699
 10
965.6283007431
 20
-523.3132146658
 10
972.7369087051
 20
-519.8519620144
 10
979.8219246936
 20
-516.6888410555
 10
986.8748118164
 20
-513.8276631035
 10
993.8870718937
 20
-511.271875655
 10
1000.8502556983
 20
-509.0245582347
 10
1007.7559731361
 20
-507.0884186851
 10
1014.5959033554
 20
-505.4657899037
 10
1021.3618047731
 20
-504.1586270316
 10
1028.0455250049
 20
-503.1685050984
 10
1034.6390106885
 20
-502.4966171238
 10
1041.1343171873
 20
-502.1437726805
 10
1047.5236181628
 20
-502.1103969186
 10
1053.799215005
 20
-502.3965300533
 10
1059.9535461084
 20
-503.0018273165
 10
1065.9791959835
 20
-503.925559372
 10
1071.8689041915
 20
-505.1666131948
 10
1077.6155740926
 20
-506.7234934116
 10
1083.2122813973
 20
-508.594324103
 10
1088.6522825092
 20
-510.7768510637
 10
1093.9290226506
 20
-513.2684445188
 10
1099.0361437607
 20
-516.0661022922
 10
1103.9674921563
 20
-519.1664534242
 10
1108.7171259467
 20
-522.5657622331
 10
1113.2793221931
 20
-526.2599328167
 10
1117.6485838043
 20
-530.244513987
 10
1121.8196461605
 20
-534.5147046341
 10
1125.7874834563
 20
-539.0653595109
 10
1129.5473147569
 20
-543.8909954327
 10
1133.0946097584
 20
-548.9857978841
 10
1136.4250942466
 20
-554.3436280249
 10
1139.5347552471
 20
-559.9580300871
 10
1142.4198458606
 20
-565.8222391535
 10
1145.0768897776
 20
-571.929189309
 10
1147.5026854672
 20
-578.2715221542
 10
1149.6943100345
 20
-584.8415956721
 10
1151.6491227425
 20
-591.6314934359
 10
1153.3647681943
 20
-598.6330341474
 10
1154.8391791706
 20
-605.8377814956
 10
1156.0705791211
 20
-613.2370543211
 10
1157.0574843048
 20
-620.8219370763
 10
1157.7987055778
 20
-628.5832905683
 10
1158.2933498262
 20
-636.5117629708
 10
1158.5408210421
 20
-644.5978010919
 10
1158.5408210421
 20
-652.8316618855
 10
1158.2933498262
 20
-661.2034241908
 10
1157.7987055778
 20
-669.7030006861
 10
1157.0574843048
 20
-678.3201500438
 10
1156.0705791211
 20
-687.0444892701
 10
1154.8391791706
 20
-695.8655062157
 10
1153.3647681943
 20
-704.7725722423
 10
1151.6491227425
 20
-713.7549550291
 10
1149.6943100345
 20
-722.8018315044
 10
1147.5026854672
 20
-731.9023008867
 10
1145.0768897776
 20
-741.0453978191
 10
1142.4198458606
 20
-750.2201055821
 10
1139.5347552471
 20
-759.4153693674
 10
1136.4250942466
 20
-768.6201095983
 10
1133.0946097584
 20
-777.8232352798
 10
1129.5473147569
 20
-787.0136573621
 10
1125.7874834563
 20
-796.1803021026
 10
1121.8196461605
 20
-805.3121244083
 10
1117.6485838043
 20
-814.3981211446
 10
1113.2793221931
 20
-823.427344393
 10
1108.7171259467
 20
-832.3889146429
 10
1103.9674921563
 20
-841.2720339
 10
1099.0361437607
 20
-850.0659986975
 10
1093.9290226506
 20
-858.7602129929
 10
1088.6522825092
 20
-867.344200935
 10
1083.2122813973
 20
-875.807619487
 10
1077.6155740926
 20
-884.1402708887
 10
1071.8689041915
 20
-892.3321149442
 10
1065.9791959835
 20
-900.3732811194
 10
1059.9535461084
 20
-908.2540804353
 10
1053.799215005
 20
-915.9650171427
 10
1047.5236181628
 20
-923.4968001634
 10
1041.1343171873
 20
-930.8403542855
 10
1034.6390106885
 20
-937.9868310982
 10
1028.0455250049
 20
-944.9276196536
 10
1021.3618047731
 20
-951.654356842
 10
1014.5959033554
 20
-958.1589374692
 10
1007.755973136
 20
-964.433524022
 10
1000.8502556983
 20
-970.4705561124
 10
993.8870718936
 20
-976.2627595869
 10
986.8748118164
 20
-981.8031552915
 10
979.8219246936
 20
-987.0850674808
 10
972.7369087051
 20
-992.1021318622
 10
965.6283007431
 20
-996.8483032637
 10
958.5046661268
 20
-1001.3178629185
 10
951.3745882808
 20
-1005.5054253553
 10
944.2466583938
 20
-1009.4059448876
 10
937.1294650659
 20
-1013.0147216931
 10
930.0315839609
 20
-1016.3274074769
 10
922.9615674727
 20
-1019.3400107106
 10
915.9279344204
 20
-1022.0489014419
 10
908.939159784
 20
-1024.4508156685
 10
902.0036644927
 20
-1026.5428592708
 10
895.129805278
 20
-1028.3225114993
 10
888.325864605
 20
-1029.7876280116
 10
881.6000406922
 20
-1030.9364434565
 10
874.9604376336
 20
-1031.7675736007
 10
868.4150556337
 20
-1032.2800169972
 10
861.971781368
 20
-1032.4731561917
 10
855.6383784801
 20
-1032.3467584664
 10
849.4224782274
 20
-1031.9009761208
 10
843.3315702853
 20
-1031.1363462879
 10
837.3729937236
 20
-1030.053790287
 10
831.553928163
 20
-1028.6546125138
 10
825.8813851241
 20
-1026.9404988686
 10
820.3621995796
 20
-1024.9135147248
 10
815.0030217182
 20
-1022.5761024404
 10
809.8103089317
 20
-1019.9310784151
 10
804.7903180347
 20
-1016.981629697
 10
799.9490977251
 20
-1013.7313101419
 10
795.2924812964
 20
-1010.1840361318
 10
790.8260796086
 20
-1006.3440818556
 10
786.555274328
 20
-1002.2160741591
 10
782.4852114422
 20
-997.80498697
 10
778.6207950601
 20
-993.1161353049
 10
774.9666815023
 20
-988.1551688648
 10
771.5272736911
 20
-982.9280652278
 10
768.3067158451
 20
-977.4411226467
 10
765.3088884855
 20
-971.7009524601
 10
762.5374037609
 20
-965.7144711257
 10
759.9956010945
 20
-959.4888918875
 10
757.6865431605
 20
-953.0317160834
 10
755.6130121939
 20
-946.3507241074
 10
753.777506638
 20
-939.4539660345
 10
752.1822381341
 20
-932.3497519209
 10
750.8291288564
 20
-925.0466417914
 10
749.7198091962
 20
-917.5534353248
 10
748.8556157974
 20
-909.8791612513
 10
748.2375899456
 20
-902.0330664734
 10
747.8664763138
 20
-894.0246049242
 10
747.7427220652
 20
-885.8634261762
  0
LWPOLYLINE
  5
BE
330
1F
100
AcDbEntity
  8
0
  6
Continuous
 62
     7
370
    25
100
AcDbPolyline
 90
      102
 70
   128
 43
0.0
 10
1158.9270882902
 20
-476.1609640253
 10
1158.9415132473
 20
-476.1692927292
 10
1164.4293374486
 20
-479.5406571723
 10
1169.7365747598
 20
-483.2120996784
 10
1174.8579875784
 20
-487.1799969769
 10
1179.7885216883
 20
-491.4404332324
 10
1184.5233112476
 20
-495.9892039085
 10
1189.0576835906
 20
-500.8218199179
 10
1193.3871638393
 20
-505.9335120518
 10
1197.5074793194
 20
-511.3192356875
 10
1201.4145637769
 20
-516.9736757658
 10
1205.1045613913
 20
-522.8912520371
 10
1208.5738305802
 20
-529.066124568
 10
1211.818947594
 20
-535.4921995048
 10
1214.8367098939
 20
-542.1631350874
 10
1217.6241393128
 20
-549.0723479079
 10
1220.1784849945
 20
-556.2130194072
 10
1222.4972261082
 20
-563.5781026047
 10
1224.5780743362
 20
-571.1603290525
 10
1226.4189761327
 20
-578.9522160085
 10
1228.0181147498
 20
-586.9460738211
 10
1229.3739120308
 20
-595.1340135176
 10
1230.4850299674
 20
-603.5079545901
 10
1231.3503720204
 20
-612.0596329698
 10
1231.9690842017
 20
-620.7806091825
 10
1232.340555917
 20
-629.6622766777
 10
1232.4644205685
 20
-638.6958703219
 10
1232.340555917
 20
-647.8724750487
 10
1231.9690842017
 20
-657.1830346571
 10
1231.3503720204
 20
-666.618360749
 10
1230.4850299674
 20
-676.1691417966
 10
1229.3739120308
 20
-685.8259523321
 10
1228.0181147498
 20
-695.5792622493
 10
1226.4189761327
 20
-705.419446209
 10
1224.5780743362
 20
-715.3367931376
 10
1222.4972261082
 20
-725.321515811
 10
1220.1784849945
 20
-735.3637605133
 10
1217.6241393128
 20
-745.4536167615
 10
1214.8367098939
 20
-755.5811270856
 10
1211.818947594
 20
-765.7362968557
 10
1208.5738305802
 20
-775.9091041452
 10
1205.1045613913
 20
-786.0895096215
 10
1201.4145637769
 20
-796.2674664536
 10
1197.5074793194
 20
-806.4329302267
 10
1193.3871638393
 20
-816.5758688555
 10
1189.0576835906
 20
-826.6862724841
 10
1184.5233112476
 20
-836.7541633647
 10
1179.7885216883
 20
-846.7696057046
 10
1174.8579875784
 20
-856.7227154714
 10
1169.7365747598
 20
-866.6036701473
 10
1164.4293374486
 20
-876.4027184231
 10
1158.9415132473
 20
-886.1101898212
 10
1153.2785179759
 20
-895.7165042393
 10
1147.4459403269
 20
-905.2121814048
 10
1141.4495363503
 20
-914.5878502308
 10
1135.295223773
 20
-923.8342580641
 10
1128.9890761583
 20
-932.9422798165
 10
1122.5373169127
 20
-941.9029269702
 10
1115.9463131436
 20
-950.7073564482
 10
1109.2225693759
 20
-959.3468793417
 10
1102.372721133
 20
-967.8129694846
 10
1095.4035283882
 20
-976.0972718681
 10
1088.3218688932
 20
-984.1916108858
 10
1081.134731391
 20
-992.0879984024
 10
1073.8492087186
 20
-999.7786416368
 10
1066.4724908072
 20
-1007.2559508526
 10
1059.011857587
 20
-1014.5125468484
 10
1051.474671802
 20
-1021.54126824
 10
1043.8683717448
 20
-1028.3351785279
 10
1036.2004639152
 20
-1034.887572943
 10
1028.4785156123
 20
-1041.1919850631
 10
1020.710147467
 20
-1047.2421931945
 10
1012.9030259206
 20
-1053.0322265123
 10
1005.0648556596
 20
-1058.5563709525
 10
997.2033720118
 20
-1063.8091748517
 10
989.3263333123
 20
-1068.7854543265
 10
981.4415132473
 20
-1073.4802983898
 10
973.5566931824
 20
-1077.8890737975
 10
965.6796544829
 20
-1082.0074296204
 10
957.818170835
 20
-1085.8313015386
 10
949.980000574
 20
-1089.3569158521
 10
942.1728790277
 20
-1092.5807932053
 10
934.4045108823
 20
-1095.4997520204
 10
926.6825625795
 20
-1098.1109116375
 10
919.0146547498
 20
-1100.4116951573
 10
911.4083546926
 20
-1102.3998319843
 10
903.8711689077
 20
-1104.0733600675
 10
896.4105356874
 20
-1105.4306278366
 10
889.0338177761
 20
-1106.4702958322
 10
881.7482951037
 20
-1107.1913380276
 10
874.5611576015
 20
-1107.5930428411
 10
867.4794981065
 20
-1107.6750138387
 10
860.5103053616
 20
-1107.4371701248
 10
853.6604571187
 20
-1106.8797464224
 10
846.9367133511
 20
-1106.0032928415
 10
840.3457095819
 20
-1104.8086743359
 10
833.8939503363
 20
-1103.2970698499
 10
827.5878027217
 20
-1101.4699711545
 10
821.4334901443
 20
-1099.3291813757
 10
815.4370861678
 20
-1096.8768132144
 10
809.6045085188
 20
-1094.115286862
 10
803.9559382044
 20
-1091.0556563155
  0
LWPOLYLINE
  5
BF
330
1F
100
AcDbEntity
  8
0
  6
Continuous
 62
     7
370
    25
100
AcDbPolyline
 90
       61
 70
   128
 43
0.0
 10
827.6457883392
 20
-931.9904844942
 10
827.7695425879
 20
-923.686422132
 10
828.1406562196
 20
-915.249481904
 10
828.7586820715
 20
-906.6898296661
 10
829.6228754703
 20
-898.0177791326
 10
830.7321951305
 20
-889.2437794488
 10
832.0853044082
 20
-880.378402601
 10
833.6805729121
 20
-871.4323306779
 10
835.516078468
 20
-862.4163429992
 10
837.5896094346
 20
-853.3413031279
 10
839.8986673686
 20
-844.2181457803
 10
842.440470035
 20
-835.0578636503
 10
845.2119547596
 20
-825.8714941645
 10
848.2097821191
 20
-816.6701061826
 10
851.4303399652
 20
-807.4647866603
 10
854.8697477764
 20
-798.2666272909
 10
858.5238613342
 20
-789.0867111398
 10
862.3882777163
 20
-779.9360992911
 10
866.4583406021
 20
-770.8258175193
 10
870.7291458827
 20
-761.7668430043
 10
875.1955475705
 20
-752.770091105
 10
879.8521639992
 20
-743.8464022065
 10
884.6933843088
 20
-735.006528659
 10
889.7133752058
 20
-726.2611218215
 10
894.9060879923
 20
-717.6207192282
 10
900.2652658537
 20
-709.0957318913
 10
905.7844513982
 20
-700.6964317563
 10
911.456994437
 20
-692.4329393259
 10
917.2760599977
 20
-684.3152114648
 10
923.2346365594
 20
-676.3530294027
 10
929.3255445014
 20
-668.555986949
 10
935.5414447542
 20
-660.9334789324
 10
941.8748476421
 20
-653.4946898815
 10
948.3181219078
 20
-646.2485829576
 10
954.8635039077
 20
-639.2038891552
 10
961.5031069663
 20
-632.3690967817
 10
968.2289308791
 20
-625.7524412295
 10
975.0328715521
 20
-619.3618950532
 10
981.9067307668
 20
-613.2051583633
 10
988.8422260581
 20
-607.2896495478
 10
995.8310006945
 20
-601.6224963342
 10
1002.8646337468
 20
-596.2105272006
 10
1009.934650235
 20
-591.0602631485
 10
1017.03253134
 20
-586.1779098447
 10
1024.1497246679
 20
-581.5693501449
 10
1031.2776545549
 20
-577.2401370043
 10
1038.4077324009
 20
-573.1954867878
 10
1045.5313670172
 20
-569.4402729838
 10
1052.6399749791
 20
-565.9790203324
 10
1059.7249909677
 20
-562.8158993735
 10
1066.7778780904
 20
-559.9547214215
 10
1073.7901381677
 20
-557.398933973
 10
1080.7533219723
 20
-555.1516165527
 10
1087.6590394101
 20
-553.2154770031
 10
1094.4989696295
 20
-551.5928482217
 10
1101.2648710471
 20
-550.2856853496
 10
1107.948591279
 20
-549.2955634163
 10
1114.5420769626
 20
-548.6236754418
 10
1121.0373834614
 20
-548.2708309985
 10
1127.4266844369
 20
-548.2374552366
 10
1132.745902359
 20
-548.4588693986
  0
LWPOLYLINE
  5
C0
330
1F
100
AcDbEntity
  8
0
  6
Continuous
 62
     7
370
    25
100
AcDbPolyline
 90
       16
 70
   128
 43
0.0
 10
853.4716479148
 20
-1032.2284847873
 10
851.4303399652
 20
-1029.0551235458
 10
848.2097821191
 20
-1023.5681809647
 10
845.2119547596
 20
-1017.828010778
 10
842.440470035
 20
-1011.8415294437
 10
839.8986673686
 20
-1005.6159502055
 10
837.5896094346
 20
-999.1587744014
 10
835.516078468
 20
-992.4777824254
 10
833.6805729121
 20
-985.5810243525
 10
832.0853044082
 20
-978.4768102389
 10
830.7321951305
 20
-971.1737001094
 10
829.6228754703
 20
-963.6804936428
 10
828.7586820715
 20
-956.0062195693
 10
828.1406562196
 20
-948.1601247914
 10
827.7695425879
 20
-940.1516632422
 10
827.6457883392
 20
-931.9904844942
  0
LWPOLYLINE
  5
C1
330
1F
100
AcDbEntity
  8
0
  6
Continuous
 62
     7
370
    25
100
AcDbPolyline
 90
       47
 70
   128
 43
0.0
 10
828.1244268111
 20
-947.8977347984
 10
828.1424838269
 20
-947.5645455447
 10
828.7628597168
 20
-938.4237754639
 10
829.6304653395
 20
-929.1682545566
 10
830.7443812431
 20
-919.8077914366
 10
832.103426946
 20
-910.3523059307
 10
833.7061621886
 20
-900.8118185667
 10
835.550888459
 20
-891.1964399538
 10
837.6356507937
 20
-881.5163600677
 10
839.9582398487
 20
-871.7818374518
 10
842.5161942415
 20
-862.0031883457
 10
845.3068031589
 20
-852.1907757525
 10
848.3271092306
 20
-842.3549984562
 10
851.5739116625
 20
-832.5062800019
 10
855.0437696294
 20
-822.6550576491
 10
858.7330059211
 20
-812.8117713109
 10
862.6377108392
 20
-802.9868524902
 10
866.7537463411
 20
-793.1907132246
 10
871.0767504245
 20
-783.4337350525
 10
875.6021417508
 20
-773.7262580108
 10
880.3251244996
 20
-764.0785696775
 10
885.2406934516
 20
-754.5008942688
 10
890.3436392924
 20
-745.003381804
 10
895.6285541338
 20
-735.5960973495
 10
901.0898372441
 20
-726.2890103513
 10
906.7217009842
 20
-717.0919840709
 10
912.5181769406
 20
-708.0147651315
 10
918.4731222508
 20
-699.06697319
 10
924.5802261129
 20
-690.2580907415
 10
930.833016474
 20
-681.5974530711
 10
937.2248668886
 20
-673.0942383599
 10
943.7490035411
 20
-664.757457959
 10
950.3985124246
 20
-656.5959468393
 10
957.1663466681
 20
-648.6183542286
 10
964.0453340039
 20
-640.8331344456
 10
971.0281843694
 20
-633.2485379404
 10
978.107497632
 20
-625.8726025507
 10
985.2757714318
 20
-618.7131449843
 10
992.5254091323
 20
-611.7777525346
 10
999.8487278711
 20
-605.0737750401
 10
1007.2379667013
 20
-598.6083170955
 10
1014.6852948171
 20
-592.3882305226
 10
1022.1828198518
 20
-586.4201071087
 10
1029.7225962423
 20
-580.7102716212
 10
1037.2966336491
 20
-575.2647751048
 10
1044.8969054245
 20
-570.0893884686
 10
1047.0416172228
 20
-568.6809494266
  0
ENDSEC
  0
SECTION
  2
OBJECTS
  0
DICTIONARY
  5
C
330
0
100
AcDbDictionary
281
     1
  3
ACAD_GROUP
350
D
  3
ACAD_LAYOUT
350
1A
  3
ACAD_MLINESTYLE
350
17
  3
ACAD_PLOTSETTINGS
350
19
  3
ACAD_PLOTSTYLENAME
350
E
  3
ACAD_SCALELIST
350
47
  0
DICTIONARY
  5
D
102
{ACAD_REACTORS
330
C
102
}
330
C
100
AcDbDictionary
281
     1
  0
DICTIONARY
  5
1A
102
{ACAD_REACTORS
330
C
102
}
330
C
100
AcDbDictionary
281
     1
  3
Layout1
350
1E
  3
Layout2
350
26
  3
Model
350
22
  0
DICTIONARY
  5
17
102
{ACAD_REACTORS
330
C
102
}
330
C
100
AcDbDictionary
281
     1
  3
Standard
350
18
  0
DICTIONARY
  5
19
102
{ACAD_REACTORS
330
C
102
}
330
C
100
AcDbDictionary
281
     1
  0
ACDBDICTIONARYWDFLT
  5
E
102
{ACAD_REACTORS
330
C
102
}
330
C
100
AcDbDictionary
281
     1
  3
Normal
350
F
100
AcDbDictionaryWithDefault
340
F
  0
DICTIONARY
  5
47
102
{ACAD_REACTORS
330
C
102
}
330
C
100
AcDbDictionary
281
     1
  3
A0
350
48
  3
A1
350
49
  3
A2
350
4A
  3
A3
350
4B
  3
A4
350
4C
  3
A5
350
4D
  3
A6
350
4E
  3
A7
350
4F
  3
A8
350
50
  3
A9
350
51
  3
B0
350
52
  3
B1
350
53
  3
B2
350
54
  3
B3
350
55
  3
B4
350
56
  3
B5
350
57
  3
B6
350
58
  3
B7
350
59
  3
B8
350
5A
  3
B9
350
5B
  3
C0
350
5C
  3
C1
350
5D
  3
C2
350
5E
  3
C3
350
5F
  3
C4
350
60
  3
C5
350
61
  3
C6
350
62
  3
C7
350
63
  3
C8
350
64
  3
C9
350
65
  3
D0
350
66
  3
D1
350
67
  3
D2
350
68
  0
LAYOUT
  5
1E
102
{ACAD_REACTORS
330
1A
102
}
330
1A
100
AcDbPlotSettings
  1

  2
none_device
  4

  6

 40
0.0
 41
0.0
 42
0.0
 43
0.0
 44
0.0
 45
0.0
 46
0.0
 47
0.0
 48
0.0
 49
0.0
140
0.0
141
0.0
142
1.0
143
1.0
 70
   688
 72
     1
 73
     0
 74
     5
  7

 75
    16
147
1.0
148
0.0
149
0.0
100
AcDbLayout
  1
Layout1
 70
     1
 71
     1
 10
0.0
 20
0.0
 11
420.0
 21
297.0
 12
0.0
 22
0.0
 32
0.0
 14
1.0000000000E+20
 24
1.0000000000E+20
 34
1.0000000000E+20
 15
-1.0000000000E+20
 25
-1.0000000000E+20
 35
-1.0000000000E+20
146
0.0
 13
0.0
 23
0.0
 33
0.0
 16
1.0
 26
0.0
 36
0.0
 17
0.0
 27
1.0
 37
0.0
 76
     0
330
1B
  0
LAYOUT
  5
26
102
{ACAD_REACTORS
330
1A
102
}
330
1A
100
AcDbPlotSettings
  1

  2
none_device
  4

  6

 40
0.0
 41
0.0
 42
0.0
 43
0.0
 44
0.0
 45
0.0
 46
0.0
 47
0.0
 48
0.0
 49
0.0
140
0.0
141
0.0
142
1.0
143
1.0
 70
   688
 72
     1
 73
     0
 74
     5
  7

 75
    16
147
1.0
148
0.0
149
0.0
100
AcDbLayout
  1
Layout2
 70
     1
 71
     2
 10
0.0
 20
0.0
 11
0.0
 21
0.0
 12
0.0
 22
0.0
 32
0.0
 14
0.0
 24
0.0
 34
0.0
 15
0.0
 25
0.0
 35
0.0
146
0.0
 13
0.0
 23
0.0
 33
0.0
 16
1.0
 26
0.0
 36
0.0
 17
0.0
 27
1.0
 37
0.0
 76
     0
330
23
  0
LAYOUT
  5
22
102
{ACAD_REACTORS
330
1A
102
}
330
1A
100
AcDbPlotSettings
  1

  2
none_device
  4
Letter_(8.50_x_11.00_Inches)
  6

 40
6.35
 41
6.35
 42
6.35000508
 43
6.35000508
 44
215.9
 45
279.4
 46
0.0
 47
0.0
 48
0.0
 49
0.0
140
0.0
141
0.0
142
1.0
143
1.0
 70
  1712
 72
     1
 73
     0
 74
     0
  7

 75
     0
147
1.0
148
0.0
149
0.0
100
AcDbLayout
  1
Model
 70
     1
 71
     0
 10
0.0
 20
0.0
 11
279.4
 21
215.9
 12
0.0
 22
0.0
 32
0.0
 14
0.0
 24
0.0
 34
0.0
 15
279.4
 25
215.9
 35
0.0
146
0.0
 13
0.0
 23
0.0
 33
0.0
 16
1.0
 26
0.0
 36
0.0
 17
0.0
 27
1.0
 37
0.0
 76
     0
330
1F
331
29
  0
MLINESTYLE
  5
18
102
{ACAD_REACTORS
330
17
102
}
330
17
100
AcDbMlineStyle
  2
Standard
 70
     0
  3

 62
   256
 51
90.0
 52
90.0
 71
     2
 49
0.5
 62
   256
  6
BYLAYER
 49
-0.5
 62
   256
  6
BYLAYER
  0
ACDBPLACEHOLDER
  5
F
102
{ACAD_REACTORS
330
E
102
}
330
E
  0
SCALE
  5
48
102
{ACAD_REACTORS
330
47
102
}
330
47
100
AcDbScale
 70
     0
300
1:1
140
1.0
141
1.0
290
     1
  0
SCALE
  5
49
102
{ACAD_REACTORS
330
47
102
}
330
47
100
AcDbScale
 70
     0
300
1:2
140
1.0
141
2.0
290
     0
  0
SCALE
  5
4A
102
{ACAD_REACTORS
330
47
102
}
330
47
100
AcDbScale
 70
     0
300
1:4
140
1.0
141
4.0
290
     0
  0
SCALE
  5
4B
102
{ACAD_REACTORS
330
47
102
}
330
47
100
AcDbScale
 70
     0
300
1:5
140
1.0
141
5.0
290
     0
  0
SCALE
  5
4C
102
{ACAD_REACTORS
330
47
102
}
330
47
100
AcDbScale
 70
     0
300
1:8
140
1.0
141
8.0
290
     0
  0
SCALE
  5
4D
102
{ACAD_REACTORS
330
47
102
}
330
47
100
AcDbScale
 70
     0
300
1:10
140
1.0
141
10.0
290
     0
  0
SCALE
  5
4E
102
{ACAD_REACTORS
330
47
102
}
330
47
100
AcDbScale
 70
     0
300
1:16
140
1.0
141
16.0
290
     0
  0
SCALE
  5
4F
102
{ACAD_REACTORS
330
47
102
}
330
47
100
AcDbScale
 70
     0
300
1:20
140
1.0
141
20.0
290
     0
  0
SCALE
  5
50
102
{ACAD_REACTORS
330
47
102
}
330
47
100
AcDbScale
 70
     0
300
1:30
140
1.0
141
30.0
290
     0
  0
SCALE
  5
51
102
{ACAD_REACTORS
330
47
102
}
330
47
100
AcDbScale
 70
     0
300
1:40
140
1.0
141
40.0
290
     0
  0
SCALE
  5
52
102
{ACAD_REACTORS
330
47
102
}
330
47
100
AcDbScale
 70
     0
300
1:50
140
1.0
141
50.0
290
     0
  0
SCALE
  5
53
102
{ACAD_REACTORS
330
47
102
}
330
47
100
AcDbScale
 70
     0
300
1:100
140
1.0
141
100.0
290
     0
  0
SCALE
  5
54
102
{ACAD_REACTORS
330
47
102
}
330
47
100
AcDbScale
 70
     0
300
2:1
140
2.0
141
1.0
290
     0
  0
SCALE
  5
55
102
{ACAD_REACTORS
330
47
102
}
330
47
100
AcDbScale
 70
     0
300
4:1
140
4.0
141
1.0
290
     0
  0
SCALE
  5
56
102
{ACAD_REACTORS
330
47
102
}
330
47
100
AcDbScale
 70
     0
300
8:1
140
8.0
141
1.0
290
     0
  0
SCALE
  5
57
102
{ACAD_REACTORS
330
47
102
}
330
47
100
AcDbScale
 70
     0
300
10:1
140
10.0
141
1.0
290
     0
  0
SCALE
  5
58
102
{ACAD_REACTORS
330
47
102
}
330
47
100
AcDbScale
 70
     0
300
100:1
140
100.0
141
1.0
290
     0
  0
SCALE
  5
59
102
{ACAD_REACTORS
330
47
102
}
330
47
100
AcDbScale
 70
     0
300
1/128" = 1'-0"
140
0.0078125
141
12.0
290
     0
  0
SCALE
  5
5A
102
{ACAD_REACTORS
330
47
102
}
330
47
100
AcDbScale
 70
     0
300
1/64" = 1'-0"
140
0.015625
141
12.0
290
     0
  0
SCALE
  5
5B
102
{ACAD_REACTORS
330
47
102
}
330
47
100
AcDbScale
 70
     0
300
1/32" = 1'-0"
140
0.03125
141
12.0
290
     0
  0
SCALE
  5
5C
102
{ACAD_REACTORS
330
47
102
}
330
47
100
AcDbScale
 70
     0
300
1/16" = 1'-0"
140
0.0625
141
12.0
290
     0
  0
SCALE
  5
5D
102
{ACAD_REACTORS
330
47
102
}
330
47
100
AcDbScale
 70
     0
300
3/32" = 1'-0"
140
0.09375
141
12.0
290
     0
  0
SCALE
  5
5E
102
{ACAD_REACTORS
330
47
102
}
330
47
100
AcDbScale
 70
     0
300
1/8" = 1'-0"
140
0.125
141
12.0
290
     0
  0
SCALE
  5
5F
102
{ACAD_REACTORS
330
47
102
}
330
47
100
AcDbScale
 70
     0
300
3/16" = 1'-0"
140
0.1875
141
12.0
290
     0
  0
SCALE
  5
60
102
{ACAD_REACTORS
330
47
102
}
330
47
100
AcDbScale
 70
     0
300
1/4" = 1'-0"
140
0.25
141
12.0
290
     0
  0
SCALE
  5
61
102
{ACAD_REACTORS
330
47
102
}
330
47
100
AcDbScale
 70
     0
300
3/8" = 1'-0"
140
0.375
141
12.0
290
     0
  0
SCALE
  5
62
102
{ACAD_REACTORS
330
47
102
}
330
47
100
AcDbScale
 70
     0
300
1/2" = 1'-0"
140
0.5
141
12.0
290
     0
  0
SCALE
  5
63
102
{ACAD_REACTORS
330
47
102
}
330
47
100
AcDbScale
 70
     0
300
3/4" = 1'-0"
140
0.75
141
12.0
290
     0
  0
SCALE
  5
64
102
{ACAD_REACTORS
330
47
102
}
330
47
100
AcDbScale
 70
     0
300
1" = 1'-0"
140
1.0
141
12.0
290
     0
  0
SCALE
  5
65
102
{ACAD_REACTORS
330
47
102
}
330
47
100
AcDbScale
 70
     0
300
1-1/2" = 1'-0"
140
1.5
141
12.0
290
     0
  0
SCALE
  5
66
102
{ACAD_REACTORS
330
47
102
}
330
47
100
AcDbScale
 70
     0
300
3" = 1'-0"
140
3.0
141
12.0
290
     0
  0
SCALE
  5
67
102
{ACAD_REACTORS
330
47
102
}
330
47
100
AcDbScale
 70
     0
300
6" = 1'-0"
140
6.0
141
12.0
290
     0
  0
SCALE
  5
68
102
{ACAD_REACTORS
330
47
102
}
330
47
100
AcDbScale
 70
     0
300
1'-0" = 1'-0"
140
12.0
141
12.0
290
     0
  0
ENDSEC
  0
EOF
